» » »

Tessellate Tabs (ver.2)

Artists:  A B C D E F G H I J K L M N O P Q R S T U V W X Y Z # 

Tessellate Tabs (ver.2)

Tokyo Police Club
Rating:
5/5 (2 votes)
Tabs too difficult? Try these video lessons and learn fast.
                The song is great!! Its fairly simple, and it took me a while to figure out, i'm 
the tab is 100% correct.
Enjoi!
Mack

Legend:
h = Hammer on
x = Dont let string ring

Intro:

e--------------------------------------------------------|
B-----9-9---9-9---9-9---9-9------9-9-9-9---9-9-9-9-------|
G-----9-9---9-9---9-9---9-9------9-9-9-9---9-9-9-9-------|  Repeat x4
D--------------------------------------------------------|
A---7----7h9----7----------------------------------------|
E---------------------9------7h9---------7---------------|

Verse:

**Figure out the strumming, takes too much time to write out

e--------------------------------------------------------------|
B---*-------9-9---9-9---9-9---9-9------9-9-9-9---9-9-9-9-------|
G---2-------9-9---9-9---9-9---9-9------9-9-9-9---9-9-9-9-------|  Repeat x2
D---2----------------------------------------------------------|
A---2-----7----7h9----7----------------------------------------|
E---------------------------9------7h9---------7---------------|

Pre chorus:

**Figure out the strumming for power chords

e-------------------------------------|
B-------------------------------------|
G--7-7-7-7-7-7-7-7-5-5-5-5-5-5-5-5----| Repeat x4
D--8-8-8-8-8-8-8-8-6-6-6-6-6-6-6-6----|
A--9-9-9-9-9-9-9-9-7-7-7-7-7-7-7-7----|
E-------------------------------------|
  *    *
e-5----7-|
B-5----7-|
G-6----8-|
D-7----9-|
A-7----9-|
E-5----7-|

Chorus:

Figure out the strumming for chorus

e---------------|
B--------4------|
G--1--2--4------| Repeat x2
D--2--2--4------|
A--2--2--2------|
E---------------|

e---------------|
B---------------|
G--1--2---------|
D--2--2---------|
A--2--2---------|
E---------------|

Repeat everything from the verse,at the last chorus, during `Dead lovers salivate` ànd 
hearts tesselate tonight` strum the A chord, and on tonight strum the E chord.
            
Tabs too difficult? Try these video lessons and learn fast.


comments powered by Disqus
↑ Back to top | Tablatures and chords are parodies/interpretations of the original songs. You may use it for private study, scholarship, research or language learning purposes only