» » »

Tessellate Bass tabs (ver.2)

Artists:  A B C D E F G H I J K L M N O P Q R S T U V W X Y Z # 

Tessellate Bass tabs (ver.2)

Tokyo Police Club
Rating:
4/5 (2 votes)

Hard to play? Try these video lessons and learn fast.
                ----------------------------------------------------------------------------
                                                        TESSELLATE - TOKYO POLICE CLUB
----------------------------------------------------------------------------

Tuning: Standard


(And all...)
G|---------------------------------------------|
D|-------6-------------------------------------|
A|-7~--9---------------------------------------|
E|---------9~--9-7-5-5555-5-5555-5-5555-5-5555-|

G|---------------------------------------------|
D|-------6-------------------------------------|
A|-7~--9---------------------------------------|
E|---------9~--9-7-5-5555-5-5555-5-5555-5-5555-|

G|-------------------------------------------------------------------------|
D|-------------------------------------------------------------------------|
A|-------------------------------------------------------------------------|
E|-7-777-7-777-5-555-5-555-7-777-7-777-5-555-5-555-7-777-7-777-5-555-5-555-|
(they're 12s and 11s not 1s and 2s)
G|-----------------------------------------------------------|
D|-----------------------------------------------------------|
A|-12--12-12-12--12--12-12-12-12--11--11-11-11--11--11-11-11-|
E|-----------------------------------------------------------|
(...dire faces)
G|-99-66----------------------|
D|-------99-77----------7~----|
A|-------------99-77-99----9~-|
E|----------------------------|

G|-------------------------------------|
D|-------------------------------------|
A|-------------------77777777-99999999-|
E|-77777777-99999999-------------------|

G|-------------------------------------------------|
D|-------------------------------------------------|
A|----------------------------77777777-99999999-7~-|
E|-55555555-77777777-99999999----------------------|

G|-------------------------------------|
D|-------------------------------------|
A|-77777777-77777777-77777777-77777777-|
E|-------------------------------------|

G|--------------------------------------------------------------------|
D|-------------------6------------------------------------------------|
A|-77777777-777777-9--------------------------------------------------|
E|---------------------99999999-99999-9-7-5-5555-5-5555-5-5555-5-5555-|

G|--------------------------------------------------------------------|
D|-------------------6------------------------------------------------|
A|-77777777-777777-9--------------------------------------------------|
E|---------------------99999999-99999-9-7-5-5555-5-5555-5-5555-5-5555-|

G|-------------------------------------------------------------------------|
D|-------------------------------------------------------------------------|
A|-------------------------------------------------------------------------|
E|-7-777-7-777-5-555-5-555-7-777-7-777-5-555-5-555-7-777-7-777-5-555-5-555-|
(they're 12s and 11s not 1s and 2s)
G|-----------------------------------------------------------|
D|-----------------------------------------------------------|
A|-12--12-12-12--12--12-12-12-12--11--11-11-11--11--11-11-11-|
E|-----------------------------------------------------------|
(...dire faces)
G|-99-66----------------------|
D|-------99-77----------7~----|
A|-------------99-77-99----9~-|
E|----------------------------|

G|-------------------------------------------------------------------------|
D|-----------------------------------------------------------------6666666-|
A|-------------------------------------------------7777777-9999999---------|
E|-7777777-5555555-2222222-5555555-7777777-9999999-------------------------|

G|----------------------|
D|-77777777-77777777----|
A|-------------------7~-|
E|----------------------|

This song is great fun to play but it was quite hard to wrok and I'm not sure it's all 
especially the little solo fill after "dire faces", so any comments/corrections would be 
welcome. Thanx.
            
Hard to play? Try these video lessons and learn fast. | Correct




comments powered by Disqus
↑ Back to top | Tablatures and chords are parodies/interpretations of the original songs. You may use it for private study, scholarship, research or language learning purposes only