>
 >
Tessellate

Tessellate Bass Tabs

Tokyo Police Club - Tessellate chords, tabs, tablatures, lyrics

Guitar lessons | Add/correct | Request | Top 50 tabs Artists:  A B C D E F G H I J K L M N O P Q R S T U V W X Y Z 0-9

Tessellate Bass Tabs – Tokyo Police Club

CD, Sheet music, Poster

Do you like Tessellate? Share with your friends now
Bass TabsBass Tabs v2ChordsChords v2TabsTabs v2Tabs v3Tabs v4Tabs v5UkuleleUkulele v2
Tesselate - Tokyo Police Club


Intro/Verse
G|--------------------------------------------------------------------------|
D|--------------------------------------------------------------------------|
A|---7----4-----------------------------------7----4------------------------|
E|------------------5555555544444444-----------------------5555555544444444-|

Pre Chorus
G|--------------------------------------------------------------------------|
D|--------------------------------------------------------------------------|
A|-----------------------------------------------------------------77-7777--|
E|-77-7777-77-55-5555-55-77-7777-77-55-5555-55-77-7777-77-9-99-9------------|

G|--------------------------------------------------------------------------|
D|--------------------------------------------------------------------------|
A|------121212-12-121212-1212-1111-1111-1111-11-----------------------------|
E|--------------------------------------------------------------------------|

Lead into Chorus
G|-13-13-11-11--------------------------------------------------------------|
D|--------------11-11-99-99-------------------------------------------------|
A|--------------------------1111111111111111-1212121212121212-99999999------|
E|--------------------------------------------------------------------------|


Chorus First Time
G|--------------------------------------------------------------------------|
D|--------------------------------------------------------------------------|
A|----------------------------------------77-799-9-7(hold out)-------------|
E|0-000--5-55-2-22-5-55-5-55-7-77-7-9-99------------------------------------|

Verse
G|--------------------------------------------------------------------------|
D|--------------------------------------------------------------------------|
A|---7----4-----------------------------------7----4------------------------|
E|------------------5555555544444444-----------------------5555555544444444-|

Pre Chorus
G|--------------------------------------------------------------------------|
D|--------------------------------------------------------------------------|
A|-----------------------------------------------------------------77-7777--|
E|-77-7777-77-55-5555-55-77-7777-77-55-5555-55-77-7777-77-9-99-9------------|

G|--------------------------------------------------------------------------|
D|--------------------------------------------------------------------------|
A|------121212-12-121212-1212-1111-1111-1111-11-----------------------------|
E|--------------------------------------------------------------------------|

Lead into Chorus
G|-13-13-11-11--------------------------------------------------------------|
D|--------------11-11-99-99-------------------------------------------------|
A|--------------------------1111111111111111-1212121212121212-99999999------|
E|--------------------------------------------------------------------------|

Chorus Second Time
G|--------------------------------------------------------------------------|
D|--------------------------------------------------------------------------|
A|--------------------------------------77-799-9- 1111-11--1212-7(hold out)|
E|0-000-5-55-2-22-5-55-5-55-7-77-7-9-99-------------------------------------|





Comments


Popular Tokyo Police Club tabs & chords
Breakneck Speed Chords
Listen To The Math Chords
Cheer It On 1 Tabs
Citizens Of Tomorrow 2 Tabs
End Of A Spark Tabs
End Of A Spark 2 Tabs
Graves 2 Tabs
La Ferrassie 1 Tabs
Your English Is Good Tabs
Tessellate 2 Ukulele


Song lyrics



↑ Back to top | Tablatures and chords are parodies/interpretations of the original songs. You may use it for private study, scholarship, research or language learning purposes only
© 2014 AZChords.com Contact us | Privacy policy | DMCA | Add/correct tabs | Request tabs | Top 50 tabs