» » »

Tokyo Police Club, Tessellate Bass tabs (ver.1)

Artists:  A B C D E F G H I J K L M N O P Q R S T U V W X Y Z # 

Tessellate Bass tabs (ver.1)

Tokyo Police Club Tabs
 Rating:
3.4/5 (9 votes)
Tessellate lessons Tabs too difficult? Try these video lessons and learn fast
                Tesselate - Tokyo Police Club


Intro/Verse
G|--------------------------------------------------------------------------|
D|--------------------------------------------------------------------------|
A|---7----4-----------------------------------7----4------------------------|
E|------------------5555555544444444-----------------------5555555544444444-|

Pre Chorus
G|--------------------------------------------------------------------------|
D|--------------------------------------------------------------------------|
A|-----------------------------------------------------------------77-7777--|
E|-77-7777-77-55-5555-55-77-7777-77-55-5555-55-77-7777-77-9-99-9------------|

G|--------------------------------------------------------------------------|
D|--------------------------------------------------------------------------|
A|------121212-12-121212-1212-1111-1111-1111-11-----------------------------|
E|--------------------------------------------------------------------------|

Lead into Chorus
G|-13-13-11-11--------------------------------------------------------------|
D|--------------11-11-99-99-------------------------------------------------|
A|--------------------------1111111111111111-1212121212121212-99999999------|
E|--------------------------------------------------------------------------|


Chorus First Time
G|--------------------------------------------------------------------------|
D|--------------------------------------------------------------------------|
A|----------------------------------------77-7—99-9-7(hold out)-------------|
E|0-000--5-55-2-22-5-55-5-55-7-77-7-9-99------------------------------------|

Verse
G|--------------------------------------------------------------------------|
D|--------------------------------------------------------------------------|
A|---7----4-----------------------------------7----4------------------------|
E|------------------5555555544444444-----------------------5555555544444444-|

Pre Chorus
G|--------------------------------------------------------------------------|
D|--------------------------------------------------------------------------|
A|-----------------------------------------------------------------77-7777--|
E|-77-7777-77-55-5555-55-77-7777-77-55-5555-55-77-7777-77-9-99-9------------|

G|--------------------------------------------------------------------------|
D|--------------------------------------------------------------------------|
A|------121212-12-121212-1212-1111-1111-1111-11-----------------------------|
E|--------------------------------------------------------------------------|

Lead into Chorus
G|-13-13-11-11--------------------------------------------------------------|
D|--------------11-11-99-99-------------------------------------------------|
A|--------------------------1111111111111111-1212121212121212-99999999------|
E|--------------------------------------------------------------------------|

Chorus Second Time
G|--------------------------------------------------------------------------|
D|--------------------------------------------------------------------------|
A|--------------------------------------77-7—99-9- 1111-11--1212-7(hold out)|
E|0-000-5-55-2-22-5-55-5-55-7-77-7-9-99-------------------------------------|
            
Submit corrections

comments powered by Disqus
↑ Back to top | Tokyo Police Club Bass for Tessellate. Lyrics for acoustic guitar and electric guitar. Tablatures and chords are parodies/interpretations of the original songs. You may use it for private study, scholarship, research or language learning purposes only