» » »

Citizens Of Tomorrow Tabs (ver.2)

Artists:  A B C D E F G H I J K L M N O P Q R S T U V W X Y Z # 

Citizens Of Tomorrow Tabs (ver.2)

Tokyo Police Club
Rating:
5/5 (4 votes)

Hard to play? Try these video lessons and learn fast.
                i couldnt find any tokyo police club tabs so i decided to make one myself. this is a 
easy song and is very simple to play.

Legend: ~ ==> let note ring out
        / ==> slide up
        \ ==> slide down

starts with clapping and keyboard but then there are 2 chords played.i think these are 
2 chords played it is hard to tell with the keyboard.

e------------|
B--5~----3~--|
G--6~----4~--| x5 but on 5th time only play first chord
D--7~--- 5~--|
A------------|
E------------|

Chorus--->listen to song for timing

e------------------------------------------------------------------------|
B------------------------------------------------------------------------|
G------------------------------------9-9-9-9-9-9-9-9--10-10-10-10-10--9--| x2
D---3-3--7-7--10-10--7-7--10-10--12--9-9-9-9-9-9-9-9--10-10-10-10-10--9--|
A---3-3--7-7--10-10--7-7--10-10--12--7-7-7-7-7-7-7-7---8--8--8--8--8--7--|
E---1-1--5-5---8--8--5-5---8--8--10--------------------------------------|

*on second time after playing end on*
e--------|
B--------|
G--------|
D---7~---|
A---7~---|
E---5~---|

during the verses since there is usually no guitar i play the bass line which goes 
like this:

e------------------|
B------------------|
G------------------| x2 i think
D------------------|    listen to song for timing
A------------------|
E-1~--5~--8~--10~--|

"this is not how we planned it..."
listen to song for timing
e---10-10---10-----8-8---8-----12-12---12-----12-12-12-12-12--|*up and down
B---10-10---10-----8-8---8-----12-12---12-----12-12-12-12-12--|strumming on
G-------------------------------------------------------------|last 5 chords*
D-------------------------------------------------------------|
A-------------------------------------------------------------|
E-------------------------------------------------------------|


Chorus again x2

solo, right at end of chorus it starts

e-----------------------------------------------------------------------|
B---13/17--17/18\17--17/18\17\13--13/15-15\10-10/13--13\10--10\8--8/10--|
G-----------------------------------------------------------------------|
D-----------------------------------------------------------------------|
A-----------------------------------------------------------------------|
E-----------------------------------------------------------------------|


e------------------------------------------------------------------------|
B--10/13--13/15--15/17--17/18\17--17/18\17\13--13/15-15\10-10/13--13\10--|
G------------------------------------------------------------------------|
D------------------------------------------------------------------------|
A------------------------------------------------------------------------|
E------------------------------------------------------------------------|


e------------------------------------|
B--10/8--8/10--10/13--13/15--15/17~--|
G------------------------------------|
D------------------------------------|
A------------------------------------|
E------------------------------------|


it ends with the last verse "i have a microchip..."
for this verse i just play the note where the keyboard chord is coming from on my low E string:

e---------------------|
B---------------------|
G---------------------| x5
D---------------------| *watch the timing*
A---------------------|
E--1--1/5--5\1--1/10--|

it ends on some weird keyboard chord i just play this it kinda sounds like it:

e-------|
B-------|
G---5~--|
D---5~--|
A-------|
E-------|

i hope u  enjoyed my tab for citizens of tomorrow, its a great but simple song by tokyo 
club, and rate my tab if u want.
            
Hard to play? Try these video lessons and learn fast. | Correct




comments powered by Disqus
↑ Back to top | Tablatures and chords are parodies/interpretations of the original songs. You may use it for private study, scholarship, research or language learning purposes only