» » »

Tokyo Police Club, Citizens Of Tomorrow Tabs (ver.3)

Artists:  A B C D E F G H I J K L M N O P Q R S T U V W X Y Z # 

Citizens Of Tomorrow Tabs (ver.3)

Tokyo Police Club Tabs
 Rating:
4/5 (5 votes)
Citizens Of Tomorrow lessons Tabs too difficult? Try these video lessons and learn fast
1
                Citizens of Tomorrow
Tokyo Police Club
A Lesson In Crime
2006
Standard Tuning

INTRO
See the ruins of the old world below
That's what our ancestors left us.
Our robot masters will know
How to clean this mess up
And build a better world
For man and machine alike
For the boys and the girls
Who are slaves building spaceships at night
In the fluorescent light.
That's 2009.

                                  No we can't, No we won't, No we can't
  No we won't               
e:-----------------------------x2------------------------------------|
B:-------------------------------------------------------------------|
G:------------------------5/7-7/9--9--9-9-9-9-9-9-10-10-10-10-10-9-9-|
D:-3-3--7-7--/10-10--7-7--x-x-x-x--x--x-x-x-x-x-x--x--x--x--x--x-x-x-| 
A:-x-x--x-x---x--x---x-x--3/5-5/7--7--7-7-7-7-7-7--8--8--8--8--8-7-7-|
E:-1-1--5-5--/8--8---5-5---------------------------------------------|

VERSE
On cold frosty Martian mornings  The chill on my breath is red
Redder than my mother's blood    When she turned to me and said

e:------|
B:------|
G:------|
D:--7~--|
A:------| ring out
E:--5~--|

This is not how we planned it    But we've gotten ahead of ourselves
Computers rule the planet         And the moon and mars as well

e:-13-13--13-13-|-12-12--12-12-|-12-12--12-12-|-12-12-12-12-12-12-|
B:-10-10--10-10-|-10-10--10-10-|-10-10--10-10-|-10-10-10-10-10-10-|
G:--------------|--------------|--------------|-------------------|x2
D:--------------|--------------|--------------|-------------------|
A:--------------|--------------|--------------|-------------------|
E:--------------|--------------|--------------|-------------------|

We lost the fight                      Thats 2009
e:------------------------------x2-----------------------------------|
B:-------------------------------------------------------------------|
G:------------------------5/7-7/9--9--9-9-9-9-9-9-10-10-10-10-10-9-9-|
D:-3-3--7-7--/10-10--7-7--x-x-x-x--x--x-x-x-x-x-x--x--x--x--x--x-x-x-| 
A:-x-x--x-x---x--x---x-x--3/5-5/7--7--7-7-7-7-7-7--8--8--8--8--8-7-7-|
E:-1-1--5-5--/8--8---5-5---------------------------------------------|

SOLO
e:-----------------------------------------------|
B:--/17--17h18p17--17h18p17--13-13--13/15--15----|
G:-----------------------------------------------|
D:-----------------------------------------------|
A:-----------------------------------------------|
E:-----------------------------------------------|

e:-----------------------------------------------|
B:--10--10/13-13/10-10/8-8/10-10/13-13/15-15/17--|
G:-----------------------------------------------|
D:-----------------------------------------------|
A:-----------------------------------------------|
E:-----------------------------------------------|

e:-----------------------------------------------|
B:---17--17h18p17--17h18p17--13-13--13/15--15----|
G:-----------------------------------------------|
D:-----------------------------------------------|
A:-----------------------------------------------|
E:-----------------------------------------------|

e:---------------------------------------------------------|
B:--10--10/13-13/10-10/8-8/10-10/13-13/15-15/17-17~~sust.--|
G:---------------------------------------------------------|
D:---------------------------------------------------------|
A:---------------------------------------------------------|
E:---------------------------------------------------------|

OUTRO
I have a microchip
Implanted in my heart
So if I try to escape
The robots will blow me apart
And my limbs will go flying
And land before the ones that I love
Who would wail and would weep
But the robots would keep them at bay
While I shut my eyes
For the very last time.
Citizens of tomorrow be forewarned.
            
Submit corrections

comments powered by Disqus
↑ Back to top | Tokyo Police Club Tabs for Citizens Of Tomorrow. Lyrics for acoustic guitar and electric guitar. 1 Tablatures and chords are parodies/interpretations of the original songs. You may use it for private study, scholarship, research or language learning purposes only