» » »

Cheer It On Tabs (ver.2)

Artists:  A B C D E F G H I J K L M N O P Q R S T U V W X Y Z # 

Cheer It On Tabs (ver.2)

Tokyo Police Club
Rating:
5/5 (7 votes)

Hard to play? Try these video lessons and learn fast.
                Cheer It On
Tokyo Police Club
A Lesson in Crime
2006
Standard Tuning

INTRO (played very messily. staccato) x2
e:-----(5)-----5-5---------7-7-7-7--|------5-5-----5-5---------7-7-7-7--|
B:------5-5-7-7-----8-8-8-8---------|--5-5-----7-7-----8-8-8-8----------|
G:--5-5-----------------------------|-----------------------------------| 
D:----------------------------------|-----------------------------------| 
A:----------------------------------|-----------------------------------|
E:----------------------------------|-----------------------------------|

VERSE x4
    Do your neighbor a favor.
    Collect their morning paper
    And clip out all the sad bits      no one wants to read that.
    Let them take their kids to school and the zoo in peace
e:-----(5)-----5-5---------7-7-7-7--|------5-5-----5-5---------7-7-7-7--|
B:------5-5-7-7-----8-8-8-8---------|--5-5-----7-7-----8-8-8-8----------|
G:--5-5-----------------------------|-----------------------------------|
D:----------------------------------|-----------------------------------| 
A:----------------------------------|-----------------------------------|
E:----------------------------------|-----------------------------------|

CHORUS x3
          when your standing nearr            tokyo police club!
        when your standing next to me         tokyo police club!
        when you take the tunnel           arresting you for being in love
e:----------------------------------|-----------------------------------|
B:----------------------------------|-----------------------------------|
G:--7-------------------------------|-----------------------------------|
D:--7--7----------------------------|--5--7-----------------------------|
A:--5--7----------------------------|--5--7-----------------------------|
E:-----5----------------------------|--3--5-----------------------------|

BREAK
e:------|------|------|------|------|------|------|------|
B:--15--|--13--|--12--|--13--|--15--|--13--|--12--|--10--| 16th notes
G:------|------|------|------|------|------|------|------| w/ echo
D:------|------|------|------|------|------|------|------|
A:------|------|------|------|------|------|------|------|
E:------|------|------|------|------|------|------|------|

VERSE x4
      Caught the fever that's    spreading
    Do you have a warm bed we could stay the night in
    It's all sick boys in this house   no one wants to feed us
     Dumb kid you should have hid you'd stand a better chance there
e:-----(5)-----5-5---------7-7-7-7--|------5-5-----5-5---------7-7-7-7--|
B:------5-5-7-7-----8-8-8-8---------|--5-5-----7-7-----8-8-8-8----------|
G:--5-5-----------------------------|-----------------------------------| 
D:----------------------------------|-----------------------------------| 
A:----------------------------------|-----------------------------------|
E:----------------------------------|-----------------------------------|

CHORUS x3
          When your standing nearr            Tokyo police club!
        When your standing next to me         Tokyo police club!
        Lost in the pacific                Arresting you for being in love
e:----------------------------------|-----------------------------------|
B:----------------------------------|-----------------------------------|
G:--7-------------------------------|-----------------------------------|
D:--7--7----------------------------|--5--7-----------------------------|
A:--5--7----------------------------|--5--7-----------------------------|
E:-----5----------------------------|--3--5-----------------------------|

OUTRO
e:------|------|------|------|-/20--|--19--|--17---------|
B:--15--|--13--|--12--|--13--|------|------|-------------| 16th notes
G:------|------|------|------|------|------|-------------| w/ echo
D:------|------|------|------|------|------|-------------|
A:------|------|------|------|------|------|-------------|
E:------|------|------|------|------|------|-------------|

end on:
e:--17slide down--|
B:----------------|
G:----------------|
A:----------------|
E:----------------|
            
Hard to play? Try these video lessons and learn fast. | Correct




comments powered by Disqus
↑ Back to top | Tablatures and chords are parodies/interpretations of the original songs. You may use it for private study, scholarship, research or language learning purposes only