» » »

Tokyo Police Club, Cheer It On Tabs (ver.1)

Artists:  A B C D E F G H I J K L M N O P Q R S T U V W X Y Z # 

Cheer It On Tabs (ver.1)

Tokyo Police Club Tabs
 Rating:
3.8/5 (5 votes)
Cheer It On lessons Tabs too difficult? Try these video lessons and learn fast
1
                This is my first tab. I think it's a good song and the other tab submitted is clearly
- completely wrong key and everything! Watching the video helped me figure out where to
it on the neck, and though you can't really see the chords for the chorus too easily in 
video I think these are right.

Verse
e|---------------5-5---------7-7-7-7-----------------------------------------|
B|-----------7-7-----8-8-8-8-------------------------------------------------|
G|---5-5-5-5-----------------------------------------------------------------|
D|---------------------------------------------------------------------------|
A|---------------------------------------------------------------------------|
E|---------------------------------------------------------------------------|


Chorus
      F  Dm          G  Am
e|----0--1-----------3--0----------------------------------------------------|
B|----1--3-----------0--1----------------------------------------------------|
G|----2--2-----------0--2----------------------------------------------------|
D|----3--0-----------0--2----------------------------------------------------|
A|---------------------------------------------------------------------------|
E|---------------------------------------------------------------------------|


Bridge (effect used here, I think just reverb and rapid picking)
e|----10----8----7----8----10----8----7----5---------------------------------|
B|---------------------------------------------------------------------------|
G|---------------------------------------------------------------------------|
D|---------------------------------------------------------------------------|
A|---------------------------------------------------------------------------|
E|---------------------------------------------------------------------------|

Outro (same effect as bridge)

e|----10----8----7----8----10----8----7----5------(play twice)-----------------|
B|-----------------------------------------------------------------------------|
G|-----------------------------------------------------------------------------|
D|-----------------------------------------------------------------------------|
A|-----------------------------------------------------------------------------|
E|-----------------------------------------------------------------------------|

e|----20----19----17-(slide down and end)--------------------------------------|
B|-----------------------------------------------------------------------------|
G|-----------------------------------------------------------------------------|
D|-----------------------------------------------------------------------------|
A|-----------------------------------------------------------------------------|
E|-----------------------------------------------------------------------------|


Enjoy!

Ratings and feedback welcome.
            
Submit corrections

comments powered by Disqus
↑ Back to top | Tokyo Police Club Tabs for Cheer It On. Lyrics for acoustic guitar and electric guitar. 1 Tablatures and chords are parodies/interpretations of the original songs. You may use it for private study, scholarship, research or language learning purposes only