» » »

Toby Turner, Tobuscus Tabs (ver.3)

Artists:  A B C D E F G H I J K L M N O P Q R S T U V W X Y Z # 

Tobuscus Tabs (ver.3)

Toby Turner Tabs
 Rating:
4/5 (4 votes)
Tobuscus lessons Tabs too difficult? Try these video lessons and learn fast
                (Theme)
This is how i think the tab of Tobuscus theme should look like.
I looked for other tabs, but none of them seem to be right.
Hope you enjoy it :D
P.S. As you might have seen, the tuning is drop D.

Intro
e|--------------------------------|--------------------------------|
B|--------------------------------|--------------------------------|
G|--------------------------------|--------------------------------|
D|-3/5--5-7-----------3p0---------|-3/5---5-7---2-2-2/4------------|
A|-3/5-5------7p5-5-5-----3p0-----|-3/5-5-------3-3-3/5-0----------|
D|-3/5------0---------------------|-3/5-------0---------0----------|

e|--------------------------------|--------------------------------|
B|--------------------------------|--------------------------------|
G|--------------------------------|--------------------------------|
D|-3/5--5-7-----------3p0---------|---------------3-5--------------|
A|-3/5-5------7p5-5-5-----3p0-----|-----------3-5-----3-3h5--------|
D|-3/5------0---------------------|-3/5-0-3-5----------------------|

Solo
e|-------------------------------------|-----------------------12-----------|
B|-15p13----13-------------------------|--15p13----13----13-15-----15-13-15-|
G|-------14----14-12-14-15-14-12-14----|--------14----14--------------------|
D|----------------------------------12-|------------------------------------|
A|-------------------------------------|------------------------------------|
D|-------------------------------------|------------------------------------|

e|-------------------------------------|------------------------------------|
B|-15p13----13-------------------------|------------------------------------|
G|-------14----14-12-14-15-14-12-14----|-15-14-12---------------------------|
D|----------------------------------12-|----------15-14--10-15-14-10-12-----|
A|-------------------------------------|------------------------------------|
D|-------------------------------------|------------------------------------|


Repeat intro.
            
Submit corrections

comments powered by Disqus
↑ Back to top | Toby Turner Tabs for Tobuscus. Lyrics for acoustic guitar and electric guitar. Tablatures and chords are parodies/interpretations of the original songs. You may use it for private study, scholarship, research or language learning purposes only