» » »

Tobuscus Tabs (ver.1)

Artists:  A B C D E F G H I J K L M N O P Q R S T U V W X Y Z # 

Tobuscus Tabs (ver.1)

Toby Turner
Rating:
1/5 (1 vote)

Hard to play? Try these video lessons and learn fast.
                (Theme)
Tobuscus Theme Song
Intro
e|--------------------------------|--------------------------------|
B|--------------------------------|--------------------------------|
G|--------------------------------|--------------------------------|
D|------0-5/7--------------3p0----|------0-5/7---5-5-5/7-7---------|
A|--------------7-5-5-5-5------3p0|--------------3-3-3/5-5---------|
D|-1/3--------0-------------------|-1/3--------0-------------------|

e|--------------------------------|--------------------------------|
B|--------------------------------|--------------------------------|
G|--------------------------------|--------------------------------|
D|------0-5/7--------------3p0----|------------------3-------------|
A|--------------7-5-5-5-5------3p0|-----------0-3-5----3-5---------|
D|-1/3--------0-------------------|-3-5-0-3-5----------------------|



Solo
e|-10p8----8----------------------|-10p8----8----8-10-12-10-8-10---|
B|------10---10-8-10-11-10-8-10---|------10---10-------------------|
G|------------------------------7-|--------------------------------|
D|--------------------------------|--------------------------------|
A|--------------------------------|--------------------------------|
D|--------------------------------|--------------------------------|

e|-10p8----8----------------------|--------------------------------|
B|------10---10-8-10-11-10-8-10---|-11-10-8------------------------|
G|------------------------------7-|---------10-9----10-9-----------|
D|--------------------------------|--------------10-------10/12----|
A|--------------------------------|--------------------------------|
D|--------------------------------|--------------------------------|

That is all! just repeat the intro part a few times, you have to listen
to the song a few times to do that correct ;)
I'm about 90% sure this is correct
            
Hard to play? Try these video lessons and learn fast. | Correct




comments powered by Disqus
↑ Back to top | Tablatures and chords are parodies/interpretations of the original songs. You may use it for private study, scholarship, research or language learning purposes only