» » »

Pass Out Tabs (ver.3)

Artists:  A B C D E F G H I J K L M N O P Q R S T U V W X Y Z # 

Pass Out Tabs (ver.3)

Tinie Tempah
Rating:
2/5 (2 votes)

Hard to play? Try these video lessons and learn fast.
                Tinie Tempah - Pass Out
standard tuning

Lead Riff
e|--------------------------------|
B|----------------1-1-------------|
G|--------------------3-3-3-3-----|

D|3-3-3-3-3-3-1-1-------------1-1-|
A|--------------------------------|

E|--------------------------------|

or

e|-------------------------------------------|
B|-----------------------9-9-----------------|
G|---------------------------10-10-10-10-----|

D|-10-10-10-10-10-10-8-8-----------------8-8-|

A|-------------------------------------------|

E|-------------------------------------------|

verses
e|----------------------------------|
B|----------------------------------|
G|----------------------------------|

D|----------------------------------|

A|-----------------4-4-4-4-4-4-4-4--|

E|-1-1-1-1-1-1-1-1------------------|



Bass Part near the end of the song
e|---------------------------|
B|---------------------------|
G|---------------------------|

D|--------3------------------|

A|----------3-1-4------------|

E|-1-1-1---------------------|
            
Hard to play? Try these video lessons and learn fast. | Correct




comments powered by Disqus
↑ Back to top | Tablatures and chords are parodies/interpretations of the original songs. You may use it for private study, scholarship, research or language learning purposes only