» » »

Tinie Tempah, Pass Out Tabs (ver.2)

Artists:  A B C D E F G H I J K L M N O P Q R S T U V W X Y Z # 

Pass Out Tabs (ver.2)

Tinie Tempah Tabs
Rating:
1/5 (1 vote)
Hard to play? Try these video lessons and learn fast.
                hey this is my version of pass out 

i already tabbed this but more of a metal version in drop c so i decided
to tab it in standard tuning for u none metal heads :)

here goes

intro
|-------------------------------------------------------------|
|-------------------------------------------------------------|
|-------------------13-12-10------------------13-12-10-13-10--|
|--1010101010101010----------1010101010101010-----------------|
|-------------------------------------------------------------|
|-------------------------------------------------------------|

verse
|---------------------------------|
|---------------------------------|
|---------------------------------|
|---------------------------------|
|---------------------------------|
|--88888888-99999999--------------|

chorus
|-------------------------------------------------------------|
|-------------------------------------------------------------|
|-------------------13-12-10------------------13-12-10-13-10--|
|--1010101010101010----------1010101010101010-----------------|
|-------------------------------------------------------------|
|-------------------------------------------------------------|

bass play
|---------------------------------|
|---------------------------------|
|---------------------------------|
|---------------------------------|
|---------------------------------|
|--88888888-99999999--------------|

guitar with delay
|--8------------------------------|
|--9------------------------------|
|--10-----------------------------|
|--10-----------------------------|
|--8------------------------------|
|---------------------------------|

verse
|---------------------------------|
|---------------------------------|
|---------------------------------|
|---------------------------------|
|---------------------------------|
|--88888888-99999999--------------|

chorus
|-------------------------------------------------------------|
|-------------------------------------------------------------|
|-------------------13-12-10------------------13-12-10-13-10--|
|--1010101010101010----------1010101010101010-----------------|
|-------------------------------------------------------------|
|-------------------------------------------------------------|

reggae/ska bit
|--8--8---9-9------|
|--9--9---6-6------|
|--10-10--6-6------|
|--10-10--6-6------|
|--8--8------------|
|------------------|

next bit
|-------------------------------------------------------------------|
|-------------------------------------------------------------------|
|------10---------------10--------10---------------10--------10-----|
|---------10-8-11-11-------10--------10-8-11-11-------10--------10--|
|--888---------------888-------888--------------888-------888-------|
|-------------------------------------------------------------------|

chorus
|-------------------------------------------------------------|
|-------------------------------------------------------------|
|-------------------13-12-10------------------13-12-10-13-10--|
|--1010101010101010----------1010101010101010-----------------|
|-------------------------------------------------------------|
|-------------------------------------------------------------|

outro
|------------------------------------------------------------------------------------------------|
|------------------------------------------------------------------------------------------------|
|---------------------------13-12-10-----------------------13-13-10-10-13-10-13p12p10-13p12p10---|
|--10-10-10-10-10-10-8-------------8-10-10-10-10-10-10-8-----------------------------------------|
|----------------------11--------------------------------11--------------------------------------|
|------------------------------------------------------------------------------------------------|

hope that help if u want a heavier version check out my other tab :)
            

comments powered by Disqus
↑ Back to top | Tinie Tempah Tabs for Pass Out. Lyrics for acoustic guitar and electric guitar. Tablatures and chords are parodies/interpretations of the original songs. You may use it for private study, scholarship, research or language learning purposes only