» » »

Beautiful One Tabs (ver.2)

Artists:  A B C D E F G H I J K L M N O P Q R S T U V W X Y Z # 

Beautiful One Tabs (ver.2)

Tim Hughes
Rating:
0/5 (0 votes)

Hard to play? Try these video lessons and learn fast.
                Beautiful One   by Tim Hughes

Key of D

Intro Chord - rhythm Guitar
e------------------------|-------|
B------------------------|-------|
G-12---6-----7---9-------|--12~--| 
D-12---6-----7---9--(x3)-|--12~--| 
A-10---4-----5---7-------|--10~--|
E------------------------|-------|
 (8x) (2x) (2x) (1x)     (let ring)

intro riff - Lead Guitar
e--/15------15-----15-------------------------------------------------------------------------|
B-----15------15-----15--15-14---15-14--15---15-15-15-15--------------------------------------|
G-------14------14------------14------14--14------------14-14-14-14-12-12-12-12-11-11-11-11---| 
D---------------------------------------------------------------------------------------------| 
A---------------------------------------------------------------------------------------------|
E---------------------------------------------------------------------------------------------|

Verses 1&2
     G       A      D/F#         G       A     Bm7        G       A       D
e---5-------5-------2-------|---5-------5-------7-----|---5-------5--------12----10--|
B-3--3----5--5----3--3------|-3--3----5--5----7--7----|-3--3----5--5----10---10------|
G--4---4---6---6---2----2---|--4---4---6---6---7---7-*|--4---4---6---6----11----11---|
D-----5-------7--------4----|-----5-------7------9---*|-----5-------7----------------| 
A-------------------(x2)----|------------------(x2)---|--------------------(x2)------|
E---------------------------|-------------------------|------------------------------|
                             (skip on second time)   ^- goto beginning         
Verse 1
G             A
Wonderful, So Wonderful
   D/F#
Is Your Unfailing Love,
     G                A          Bm7
Your cross has spoken mercy over me

   G                A
No eye has seen, no ear has heard
   D/F#
No heart could fully know,
    G             A             D
How glorious, how beautiful You are
  
                
Chorus  (Power chords 8x each) 
          G       A
Beautiful One, I love You
          G       A
Beautiful One, I adore
          G      A        D
Beautiful One my soul must sing

Verse 2 (same as above)      

Chorus  (Power chords 8x each) *See Above*

Bridge     
e-10~-9-------|-10-|-10---9--------0-----|-10---12---14---15---17--|
B-------10----|----|-----------10---10---|-------------------------|
G-------------|----|---------------------|-------------------------|
D---------(x3)|----|-----------------(x2)|-------------------------| 
A-------------|----|---------------------|-------------------------|
E-------------|----|---------------------|-------------------------|
 open          (8x) (8x) (2x) (2x)        (8x) (8x) (4x) (4x) (4x)
                    open                 nothing

outro riff - Lead Guitar
e--/15------15-----15----------------------------|------|
B-----15------15-----15--15-14---15-14--15-------|-15~--|
G-------14------14------------14------14--14-----|-14~--| 
D--------------------------------------------(x3)|------| 
A------------------------------------------------|------|
E------------------------------------------------|------|
            
Hard to play? Try these video lessons and learn fast. | Correct




comments powered by Disqus
↑ Back to top | Tablatures and chords are parodies/interpretations of the original songs. You may use it for private study, scholarship, research or language learning purposes only