» » »

Beautiful One Tabs (ver.1)

Artists:  A B C D E F G H I J K L M N O P Q R S T U V W X Y Z # 

Beautiful One Tabs (ver.1)

Tim Hughes
Rating:
4/5 (1 vote)

Hard to play? Try these video lessons and learn fast.
                (Intro)
I Think This is The Intro But Im Not 100% Sure.
But It Sounds Like The Original On The
"When Silence Falls" Album. Enjoy.


E-----------------5------------------------5--7----|
B--------7-----------7-----------------------------|
G-----7--------7--------7-----6--7--6------------7-|
D--5--------5--------------7-----------7-----------|
A--------------------------------------------------|
E--------------------------------------------------|


E-----------------5------------------------5--7----|
B--------7-----------7-----------------------------|
G-----7--------7--------7-----6--7--6------------7-|
D--5--------5--------------7-----------7-----------|
A--------------------------------------------------|
E--------------------------------------------------|

E-----------------5------------------------5--7----|
B--------7-----------7-----------------------------|
G-----7--------7--------7-----6--7--6------------7-|
D--5--------5--------------7-----------7-----------|
A--------------------------------------------------|
E--------------------------------------------------|
            
Hard to play? Try these video lessons and learn fast. | Correct




comments powered by Disqus
↑ Back to top | Tablatures and chords are parodies/interpretations of the original songs. You may use it for private study, scholarship, research or language learning purposes only