» » »

The Word Alive, The Hounds Of Anubis Tabs (ver.3)

Artists:  A B C D E F G H I J K L M N O P Q R S T U V W X Y Z # 

The Hounds Of Anubis Tabs (ver.3)

The Word Alive Tabs
Rating:
2/5 (4 votes)
The Hounds Of Anubis lessons Tabs too difficult? Try these video lessons and learn fast
                (Intro)
The Hounds Of Anubis
The Word Alive
Fearless Records

Q = 144
Tuning: C G C F A D

The tab is unfinished but I thought I'd share what I've figured out so far.

D----------------------------------------------------------|
A-----------10------9--------------------------------------|
F---7-------x-(x16)-x-(x16)-9------8-----------------------|
C---x-(x16)-7-------6-------x-(x8)-x-(x8)------------------|(x2)
G---5-----------------------7------6-----------------------|
C----------------------------------------------------------|
PM

D----------------------------------------------------------|
A----------8h10--------------------------------------------|
F---7h9h10------10p9p7-------------------------------------|
C-----------------------7*--5*--3*-------------------------|(x3)
G---------------------0---0---0------------0---------------|
C----------------------------------0-2-3-5---5-3-2-0-------|
PM                    -   -   -

D----------------------------------------------------------|
A----------8-10-----------------8-10-----------------------|
F---7-9-10------10-9-7---7-9-10------10-9-7---7-7--7-7-----|
C----------------------------------------------------------|(x2)
G----------------------------------------------------------|
C----------------------------------------------------------|
PM---------------------------------------------------------

D----------------------------------------------------------|
A----------------------------------------------------------|
F----------------------------------------------------------|
C----------------------------------------------------------|(x2)
G-----------0-------------------0--------------------------|
C---0-2-3-5---5-3-2-0---0-2-3-5---5-3-2-0---00-0--00-0-----|
PM                                          --    --
            
Submit corrections

comments powered by Disqus
↑ Back to top | The Word Alive Tabs for The Hounds Of Anubis. Lyrics for acoustic guitar and electric guitar. Tablatures and chords are parodies/interpretations of the original songs. You may use it for private study, scholarship, research or language learning purposes only