>
 >
The Hounds Of Anubis

The Hounds Of Anubis Guitar Tabs

The Word Alive - The Hounds Of Anubis chords, tabs, tablatures, lyrics

Guitar lessons | Add/correct | Request | Top 50 tabs Artists:  A B C D E F G H I J K L M N O P Q R S T U V W X Y Z 0-9

The Hounds Of Anubis Guitar Tabs – The Word Alive

CD, Sheet music, Poster

Do you like The Hounds Of Anubis? Share with your friends now
TabsTabs v2Tabs v3
-------------------------------------------------------------------------------
-------------------------------------------------------------------------------

Tuning: C G C F A D

Intro
Gtr 1
D|----------------------------------------------------------------------|
A|----------------------------------------------------------------------|
F|----------------------------------------------------------------------|(x2)
C|----------------------------------------------------------------------|
G|-5(x16)-13(x16)-12(x16)-7-(x8)-6-(x8)---------------------------------|
C|-0------8-------7-------2------1--------------------------------------|

Gtr 2
D|----------------------------------------------------------------------|
A|-----------11------10-------------------------------------------------|
F|---7-------x-(x16)-x-(x16)-9------8-----------------------------------|
C|---x-(x16)-8-------7-------x-(x8)-x-(x8)------------------------------|(x2)
G|---5-----------------------7------6-----------------------------------|
C|----------------------------------------------------------------------|


D|----------------------------------------------------------------------|
A|----------------------------------------------------------------------|
F|----------------------------------------------------------------------|(x4)
C|-0h12h13h16p13p12p0-0h10-0h8-0h7--------------------------------------|
G|-----------------------------------------0----------------------------|
C|---------------------------------0h1h4h5---5p4p1p0-4h5p4-4h5p4--------|


Gtr 1
D|----------------------------------------------------------------------|
A|-----7-8-10-8-7-----------7-8-10-8-7----------------------------------|
F|-7-8------------8-7---7-8------------8-7--777-777---------------------|(x2)
C|----------------------------------------------------------------------|
G|----------------------------------------------------------------------|
C|----------------------------------------------------------------------|
  *************************************************
Gtr 2
D|-----5-6-8-6-5-----------5-6-8-6-5------------------------------------|
A|-7-8-----------8-7---7-8-----------8-7--777-777-----------------------|
F|----------------------------------------------------------------------|(x2)
C|----------------------------------------------------------------------|
G|----------------------------------------------------------------------|
C|----------------------------------------------------------------------|
  ***********************************************

D|----------------------------------------------------------------------|
A|----------------------------------------------------------------------|
F|----------------------------------------------------------------------|(x2)
C|----------------------------------------------------------------------|
G|---------0------------------0-----------------------------------------|
C|-0-1-4-5---5-4-1-0--0-1-4-5---5-4-1-0-000-000-------------------------|
   * * * *   * * * *  * * * *   * * * * **  **

Pre-Chorus
D|----------------------------------------------------------------------|
A|-7-------8-------10------8-7-------8-------10-------------------------|
F|-x-(x16)-x-(x16)-x-(x16)-x-x-(x31)-x-(x16)-x-(x12)--------------------|
C|-4-------5-------7-------5-4-------5-------7--------------------------|
G|----------------------------------------------------------------------|
C|----------------------------------------------------------------------|

D|----------------------------------------------------------------------|
A|-xxxx1010xx1010xx1010xx-----------------------------------------------|
F|-xxxxx-x-xxx-x-xxx-x-xx-----------------------------------------------|
C|-xxxx7-7-xx7-7-xx7-7-xx-----------------------------------------------|
G|----------------------------------------------------------------------|
C|----------------------------------------------------------------------|
   ****    **    **    **

Chorus (no leads yet)
D|----------------------------------------------------------------------|
A|----------------------------------------------------------------------|
F|----------------------------------------------------------------------|
C|-8-------10-------0-------3------8------10------0-------8------10-----|
G|-8-(x16)-10-(x16)-0-(x16)-3-(x8)-8-(x8)-10-(x8)-0-(x16)-8-(x8)-10-(x8)|
C|-8-------10-------0-------3------8------10------0-------8------10-----|

D|----------------------------------------------------------------------|
A|--------------------------7-------------------------------------------|
F|--------7------------7------7----7------------------------------------|(x4)
C|-----11---11------11---11-----11--------------------------------------|
G|-0h9----------0h9-----------------------------------------------------|
C|----------------------------------------------------------------------|


Verse
D|----------------------------------------------------------------------|
A|----------------------------------------------------------------------|
F|------------------------------------------------13h15p13--------------|(x2)
C|-------------------------------------------12h14--------14p12---------|
G|--------------------------------------11h13------------------13p11----|
C|-8-0-8-0-8-0-8-0-7-0-7-0-7-0-7-0-10h12---------------------------12p10|

On the second time, cut the palm mutes short
D|----------------------------------------------------------------------|
A|----------------------------------------------------------------------|
F|----------------------------------------------------------------------|(x2)
C|---------------------------------000-000-000-000----------------------|
G|---------------------------------000-000-000-000----------------------|
C|-8-0-8-0-8-0-8-0-7-0-7-0-7-0-7-0-000-000-000-000----------------------|
                                   *** *** *** ***
D|----------------------------------------------------------------------|
A|----------------------------------------------------------------------|
F|----------------------------------------------------------------------|
C|---------------------------------0000000000000000---------------------|
G|---------------------------------0000000000000000---------------------|
C|-8-0-8-0-8-0-8-0-7-0-7-0-7-0-7-0-0000000000000000---------------------|
                                   
D|----------------------------------------------------------------------|
A|----------------------------------------------------------------------|
F|----------------------------------------------------------------------|
C|---------------------------------0~-----------------------------------|
G|---------------------------------0~-----------------------------------|
C|-8-0-8-0-8-0-8-0-7-0-7-0-7-0-7-0-0~-----------------------------------|


Pre-solo riff
Gtr 1
D|-16-14----14----------------------------------------------------------|
A|-------15----15-13-15-13----13----------------------------------------|
F|-------------------------14----14-12-14-12----------------------------|
C|-------------------------------------------13-12----------------------|
G|----------------------------------------------------------------------|
C|----------------------------------------------------------------------|    

D|----------------------------------------------------------------------|
A|-----7-8-10-8-7-------------------------------------------------------|
F|-7-8------------8-7--777-777------------------------------------------|
C|----------------------------------------------------------------------|
G|----------------------------------------------------------------------|
C|----------------------------------------------------------------------|
   * * * * *  * * * *  *** ***

Gtr 2
D|-20-18----18----------------------------------------------------------|
A|-------19----19-17-19-17----17----------------------------------------|
F|-------------------------18----18-16-18-16----------------------------|
C|-------------------------------------------17-16----------------------|
G|----------------------------------------------------------------------|
C|----------------------------------------------------------------------|

D|-----5-6-8-6-5--------------------------------------------------------|
A|-7-8-----------8-7--777-777-------------------------------------------|
F|----------------------------------------------------------------------|
C|----------------------------------------------------------------------|
G|----------------------------------------------------------------------|
C|----------------------------------------------------------------------|
   * * * * * * * * *  *** ***

Solo
D|----------------------------------------------------------------------|
A|--------------10h11h13-t15s18s15p13p11p10-8--11-11-10----8-8-7--------|
F|----------7h10----------------------------------------8---------------|
C|-------5h8------------------------------------------------------------|
G|----5h8---------------------------------------------------------------|
C|-6h9------------------------------------------------------------------|

D|----------------------------------------------------------------------|
A|-------------------------11-10-11-10-8--8/11--19b---------------------|
F|-----------------8-7-8-7----------------------------------------------|
C|---------5-4-5-4------------------------------------------------------|
G|-6-5-6-5--------------------------------------------------------------|
C|----------------------------------------------------------------------|
   * * * * * * * * * * * * *  *  *  *
D|-t15p11p10-t15p11p10-t15p11p10-t15s17s15p11p10------------------------|
A|----------------------------------------------------------------------|
F|----------------------------------------------------------------------|
C|----------------------------------------------------------------------|
G|----------------------------------------------------------------------|
C|----------------------------------------------------------------------|

D|----------------------------------------------------------------------|
A|----------------------------------------------------------------------|
F|----------7h9p7---------------------9h11p9----------------------------|
C|-------6h8-----8p6--------------8h10------10p8------------------------|
G|----5h7-----------7p5--------7h9--------------9p7---------------------|
C|-6h8-----------------8p6-8h10--------------------10p8-----------------|

D|-------------------------------------11h14p11--11h14p11--11h14p11-----|
A|--------------8-----11-10-8-7--t19~----------14--------14--------14---|
F|----------8h10---10---------------------------------------------------|
C|-------7h9------------------------------------------------------------|
G|----6h8---------------------------------------------------------------|
C|-7h9------------------------------------------------------------------|

D|-11h14p11---14h17p14--14h17p14--14h17p14--14h17p14--------------------|
A|---------14---------17--------17--------17--------17------------------|
F|----------------------------------------------------------------------|
C|----------------------------------------------------------------------|
G|----------------------------------------------------------------------|
C|----------------------------------------------------------------------|

D|----------------------------------14h17p14----------------------------|
A|------------------------------------------17--------------------------|
F|----------------------------------------------------------------------|
C|-----------12h14p12---------------------------------------------------|
G|------11h13--------13p11-----13h15------------------------------------|
C|-10h12------------------12h14-----------------------------------------|

Repeat as many times as needed
D|----------------------------------------------------------------------|
A|----------------------------------------------------------------------|
F|----------------------------------------------------------------------|
C|-000-000-0~-0-0--000-000----------------------------------------------|
G|-000-000-0~-0-0--000-000----------------------------------------------|
C|-000-000-0~-0-0--000-000----------------------------------------------|
   *** *** *  * *  *** ***
Sounds like a synth version of this along with the previous riff
D|----------------------------------------------------------------------|
A|----------------------------------------------------------------------|
F|-----------------13h15p13---------------------------------------------|
C|------------12h14--------14p12----------------------------------------|
G|-------11h13------------------13p11-----------------------------------|
C|--10h12---------------------------12p10-------------------------------|


Breakdown
D|----------------------------------------------------------------------|
A|----------------------------------------------------------------------|
F|----------------------------------------------------------------------|
C|-000-000-000-000-000-000-000-000-00000000000000000--00-00-0-----------|
G|-000-000-000-000-000-000-000-000-00000000000000000--00-00-0-----------|
C|-000-000-000-000-000-000-000-000-00000000000000000--00-00-0-5b--------|
   *** *** *** *** *** *** *** ***                    ** ** *                
D|----------------------------------------------------------------------|
A|----------------------------------------------------------------------|
F|----------------------------------------------------------------------|
C|-00000000000000000--00-00-0-0---00000000000000000--00-00-0------------|(2x)
G|-00000000000000000--00-00-0-0---00000000000000000--00-00-0------------|
C|-00000000000000000--00-00-0-0---00000000000000000--00-00-0-5b---------|
                      ** ** *                        ** ** *


Pre-Chorus (modified)
D|----------------------------------------------------------------------|
A|-7~------8-------10------8-7-------8-------10-------------------------|
F|-x~------x-(x16)-x-(x16)-x-x-(x31)-x-(x16)-x-(x16)--------------------|
C|-4~------5-------7-------5-4-------5-------7--------------------------|
G|----------------------------------------------------------------------|
C|----------------------------------------------------------------------|

D|----------------------------------------------------------------------|
A|-xxxx1010xx1010xx1010xx-----------------------------------------------|
F|-xxxxx-x-xxx-x-xxx-x-xx-----------------------------------------------|
C|-xxxx7-7-xx7-7-xx7-7-xx-----------------------------------------------|
G|----------------------------------------------------------------------|
C|----------------------------------------------------------------------|
   ****    **    **    **

Chorus (no leads yet)
D|----------------------------------------------------------------------|
A|----------------------------------------------------------------------|
F|----------------------------------------------------------------------|
C|-8-------10-------0-------3------8------10------0-------8------10-----|
G|-8-(x16)-10-(x16)-0-(x16)-3-(x8)-8-(x8)-10-(x8)-0-(x16)-8-(x8)-10-(x8)|
C|-8-------10-------0-------3------8------10------0-------8------10-----|

D|----------------------------------------------------------------------|
A|--------------------------7-------------------------------------------|
F|--------7------------7------7----7------------------------------------|(x4)
C|-----11---11------11---11-----11--------------------------------------|
G|-0h9----------0h9-----------------------------------------------------|
C|----------------------------------------------------------------------|

Outro (played right after the end of the chorus riff)
D|----------------------------------------------------------------------|
A|----------------------------------------------------------------------|
F|----------------------------------------------------------------------|
C|-0~--------7~---------------------------------------------------------|
G|-0~-h5/7-9------------------------------------------------------------|
C|-0~-------------------------------------------------------------------|


************************************

| /   slide up
| \   slide down
| h   hammer-on
| p   pull-off
| ~   vibrato
| +   harmonic
| x   Mute note
| b   Bend
| pb  Pre-bend
| br  Bend release
| pbr Pre-bend release
| brb Bend release bend

************************************





Comments


Popular The Word Alive tabs & chords
2012 Bass Tabs
2012 Tabs
2012 2 Tabs
Epiphany Tabs
How To Build An Empire 2 Tabs
Like Father Like Son Tabs
The Devil Inside Tabs
The Devil Inside 2 Tabs
The Hounds Of Anubis Intro Tabs
Wishmaster Tabs


Song lyrics



↑ Back to top | Tablatures and chords are parodies/interpretations of the original songs. You may use it for private study, scholarship, research or language learning purposes only
© 2014 AZChords.com Contact us | Privacy policy | DMCA | Add/correct tabs | Request tabs | Top 50 tabs