>
 >
The Devil Inside

The Devil Inside Guitar Tabs

The Word Alive - The Devil Inside chords, tabs, tablatures, lyrics

Guitar lessons | Add/correct | Request | Top 50 tabs Artists:  A B C D E F G H I J K L M N O P Q R S T U V W X Y Z 0-9

The Devil Inside Guitar Tabs – The Word Alive

CD, Sheet music, Poster

Do you like The Devil Inside? Share with your friends now
TabsTabs v2Tabs v3
Guitar1:Rhythm
Guitar2:Lead

INTRO:
E|------------13-----------------------------------------|
B|------------17-----------------------------------------|
G|-----14--------------------9----9----------------------|(X2)
D|-----12--------------------7----7----------------------|
A|-----13-----------------88-8-88-8----------------------|
D|-000----000---0-3p03p0---------------------------------|
   ***    ***   *         **   **

PRE-VERSE:
E|--------|
B|--------|
G|--------|
D|0~------|
A|0~------|
D|0~------|

VERSE:
Guitar1:X2
E|-----------------------------------------------------|
B|-----------------------------------------------------|
G|-----------------------------------------------------|
D|-88888888888888888888888888888-5-555-555-555-55555---|
A|-88888888888888888888888888888-5-555-555-555-55555---|
D|-88888888888888888888888888888-5-555-555-555-55555---|
   *****************************
Guitar2:
E|-------------------------------------------------------------|
B|-------------------------------------------------------------|
G|-578578-356356-134134-356356---578578-356356-134134-356356---|
D|-------------------------------------------------------------|
A|-------------------------------------------------------------|
D|-------------------------------------------------------------|

E|-------------------------------------------------------------|
B|-134134-356356-578578-79107910-------------------------------|
G|-------------------------------578578-356356-134134-356356---|
D|-------------------------------------------------------------|
A|-------------------------------------------------------------|
D|-------------------------------------------------------------| 

CHORUS:
Guitar1:X2
E|------------------------------------------------------|
B|------------------------------------------------------|
G|------------------------------------------------------|
D|-88888888888888888888888888888-5555555555555555555----|
A|-88888888888888888888888888888-5555555555555555555----|
D|-88888888888888888888888888888-5555555555555555555----|
Guitar2:(Tremolo)
E|-17(X12)-----------------------17(X8)-----18/20-18/20-|
B|--------18(X5)17(X3)-15--------------18(X4)-----------|
G|------------------------------------------------------|
D|------------------------------------------------------|
A|------------------------------------------------------|
D|------------------------------------------------------|

E|-17(X12)----------------------------------------------|
B|--------18(X5)17(X3)-15(x3)---------------------------|
G|-------------------------------17(X10)15(X6)18(X5)----|
D|------------------------------------------------------|
A|------------------------------------------------------|
D|------------------------------------------------------|

(VERSE)

BREAKDOWN1:X2
E|---------------------------------|
B|---------------------------------|
G|---------------------------------|
D|-00000000-0-5b-0-00000000-00-00--|
A|-00000000-0-5b-0-00000000-00-00--|
D|-00000000-0-5b-0-00000000-00-00--|

(CHORUS)

BRIDGE:
Guitar1:(Strum)
E|------------------------------|
B|------------------------------|
G|------------------------------|
D|-0---------------------3------|
A|-0(X18)----------------3(x15)-|
D|-0---------------------3------|
Guitar2:
E|-----------------------17-17-17---------------------------------|
B|--------------------------------18-18-18-15-15-15-171717181718--|
G|---------------781010-------------------------------------------|
D|-----57810-7810-------------------------------------------------|
A|-578------------------------------------------------------------|
D|----------------------------------------------------------------|

Guitar1:(Strum)
E|------------------------------|
B|------------------------------|
G|------------------------------|
D|-5---------------------8------|
A|-5(X17)----------------8(X18)-|
D|-5---------------------8------|
Guitar2:
E|----------------------------------------------------------------|
B|----------------------------------------------------------------|
G|--------------781010---578 7910 356356 578 7910 356356----------|
D|----57810-7810--------------------------------------------------|
A|-578------------------------------------------------------------|
D|----------------------------------------------------------------|

INTERLUDE:
PART1:
Guitar1:X2
E|---------------------------------------|
B|---------------------------------------|
G|---------------------------------------|
D|-0~------------------------------------|
A|-0~------------------------------------|
D|-0~------------------------------------|
Guitar2:X2
E|---------------------------------------|
B|---8-10-11--11-10-8--8-10-11--11-10-8--|
G|--7----------------7-------------------|
D|---------------------------------------|
A|---------------------------------------|
D|---------------------------------------|

PART2:
Guitar1:
E|------------------------------------------------------------|
B|------------------------------------------------------------|
G|------------------------------------------------------------|
D|-8888888888888888-----------5555555555555555----------------|
A|-8888888888888888-----------5555555555555555----------------|
D|-8888888888888888-----------5555555555555555----------------|
   ****************           ****************
Guitar2:X2
E|------------------------------------------------------------|
B|-------8-10-11111111-1010-88------8-10-11111111-1010-88-----|
G|-777777---------------------777777--------------------------|
D|------------------------------------------------------------|
A|------------------------------------------------------------|
D|------------------------------------------------------------|
   ******* * * * * * * * *  ********* *  * * * *  * *  **

(INTERLUDE:PART1)

BREAKDOWN2:X4
E|-----------------------|
B|-----------------------|
G|-----------------------|
D|-000000-8b--000-000----|
A|-000000-12b-000-000----|
D|-000000-----000-000----|
   ******     *** ***

PRE-CHORUS:
E|-----------------------------------|
B|-----------------------------------|
G|-5-55-5-55-5-55--3-33--5-55--7-77~-|
D|-5-55-5-55-5-55--3-33--5-55--7-77~-|
A|-3-33-3-33-3-33--1-11--3-33--5-55~-|
D|-----------------------------------|

(CHORUS):
(BRIDGE):
(INTRO):
(BREAKDOWN1):X2

ENDING:
E|------------------------------------------|
B|------------------------------------------|
G|------------------------------------------|
D|-00000000---------------------------------|
A|-00000000-8b-8b-8b-8b-8b-8b-8b-8b-8b-8b---|
D|-00000000-12b12b12b12b12b12b12b12b12b12b--|
   ********                         





Comments


Popular The Word Alive tabs & chords
2012 Bass Tabs
Like Father Like Son Bass Tabs
2012 1 Tabs
Are You On Drugs Tabs
Battle Royale Tabs
Epiphany 1 Tabs
Epiphany 2 Tabs
How To Build An Empire 2 Tabs
Lights And Stones Tabs
Wishmaster Tabs


Song lyrics



↑ Back to top | Tablatures and chords are parodies/interpretations of the original songs. You may use it for private study, scholarship, research or language learning purposes only
© 2014 AZChords.com Contact us | Privacy policy | DMCA | Add/correct tabs | Request tabs | Top 50 tabs