» » »

The Word Alive, The Devil Inside Tabs (ver.3)

Artists:  A B C D E F G H I J K L M N O P Q R S T U V W X Y Z # 

The Devil Inside Tabs (ver.3)

The Word Alive Tabs
Rating:
5/5 (1 vote)
Hard to play? Try these video lessons and learn fast.
                Band: The Word Alive



Tuning:Drop D



UPDATE 10/3/09
Fixed the intro
Fixed 2nd guitar's chorus, although its missing a chord.




INTRO:

e|-----------------------------------------------------|
B|-----------------------------------------------------|
G|------------------------10/--------------------------|
D|--000--8-----------000--14/----------000--3--000--3--| x5
A|--000--12----------000---------------000--7--000--7--|
D|--000-------8p7p0--000-------3p0-3p0-000-----000-----|
    ...              ...               ...     ...
             TH
e|---------------|
B|-----------5~--|
G|-----------5~--|
D|-0~~--000--5~--|
A|-0~~--000------|
D|-0~~--000------|
        ...
VERSE:

I'm to lazy to figure out how many exact times they do this...

e|------------------------|
B|------------------------|
G|------------------------|
D|-88888888\-5-5555-5555--| x2
A|-88888888\-5-5555-5555--|
D|-88888888\-5-5555-5555--|
   ........  . .... ....

CHORUS:

Guitar 1: Use delay
e|-17-------------17------18/20-18/20--|
B|-----18--17-15------15---------------|
G|-------------------------------------|
D|-------------------------------------|
A|-------------------------------------|
D|-------------------------------------|

e|--17---------------------------|
B|------18--17-15-17--15-18-17~--|
G|-------------------------------|
D|-------------------------------|
A|-------------------------------|
D|-------------------------------|

Guitar 2:
e|---------------------|
B|---------------------|
G|-14---------9--------|
D|-12---------7--------| x2
A|-13--(x16)--8--(x16)-|
D|---------------------|

VERSE:

e|------------------------|
B|------------------------|
G|------------------------|
D|-88888888\-5-5555-5555--| x2
A|-88888888\-5-5555-5555--|
D|-88888888\-5-5555-5555--|
   ........  . .... ....

e|---------------------------------|
B|---------------------------------|
G|---------------------------------|
D|--000000---8---000000----00--00--| x2
A|--000000--12b--000000----00--00--|
D|--000000-------000000----00--00--|
    ......       ......    ..  ..

CHORUS

Guitar 1: Use delay
e|-17-------------17------18/20-18/20--|
B|-----18--17-15------15---------------|
G|-------------------------------------|
D|-------------------------------------|
A|-------------------------------------|
D|-------------------------------------|

e|--17---------------------------|
B|------18--17-15-17--15-18-17~--|
G|-------------------------------|
D|-------------------------------|
A|-------------------------------|
D|-------------------------------|

Guitar 2:
e|---------------------|
B|---------------------|
G|-14---------9--------|
D|-12---------7--------| x2
A|-13--(x16)--8--(x16)-|
D|---------------------|

BRIDGE:
            

comments powered by Disqus
↑ Back to top | The Word Alive Tabs for The Devil Inside. Lyrics for acoustic guitar and electric guitar. Tablatures and chords are parodies/interpretations of the original songs. You may use it for private study, scholarship, research or language learning purposes only