>
 >
Act I: Chasing Suns 1

Act I: Chasing Suns 1 Guitar Tabs

The Sound Of Animals Fighting - Act I: Chasing Suns 1 chords, tabs, tablatures, lyrics

Guitar lessons | Add/correct | Request | Top 50 tabs Artists:  A B C D E F G H I J K L M N O P Q R S T U V W X Y Z 0-9

Act I: Chasing Suns 1 Guitar Tabs – The Sound Of Animals Fighting

CD, Sheet music, Poster

Do you like Act I: Chasing Suns 1? Share with your friends now
TabsTabs v2

Tuning:
Intro(x2)
e|--------------------------------------------------------------------------|
B|--------------------------------------------------------------------------|
G|-----0-------------0-------------3----------------------------------------|
D|-----------------------------------------8-8-8-10-10-10-------------------|
A|0h3h6--3-3-3-0h3h6---3-3-3-0h3h6---3-3-3-6-6-6-8--8--8--------------------|
E|-----------------------------------------4-4-4-6--6--6--------------------|

e|--------------------------------------------------------------------------|
B|--------------------------------------------------------------------------|
G|------0-------------0------------3----------------------------------------|
D|------------------------------------------8-8-8-5-5-5---------------------|
A|0h3h6---3-3-3-0h3h6--3-3-3-0h3h6---3-3-3--6-6-6-3-3-3---------------------|
E|------------------------------------------4-4-4-1-1-1---------------------|

Screaming part(x2)
e|--------------------------------------------------------------------------|
B|--------------------------------------------------------------------------|
G|--12--12-12----11-11-11--12-12-12--11-11-x-11--x-11-----------------------|
D|2--x--x--x--2--x--x--x--2-x--x--x--x--x--x--x--x--x-----------------------|
A|2--10-10-10-2--9--9--9--2-10-10-10-9--9--x--9--x--9-----------------------|
E|0-----------0-----------0-------------------------------------------------|

Crazy noizy thing.....hahah...( just slide all the way up the guitar and end on this chord:)
e|0----------------------2---2---2----2-------------------------------------|
B|0-----------------------3-3-3-3-3-3-3-------------------------------------|
G|0------------------------4---4---4--4-------------------------------------|
D|2-------------------------------------------------------------------------|
A|2-------------------------------------------------------------------------|
E|0-------------------------------------------------------------------------|

1st Solo
e|12-14-10---15-14---11-14--------------------------------------------------|
B|--------12-------12-----12-12h13p10h12-12h13p10h12------------------------|
G|---------------------------------------------------12-11-12-11-9----------|
D|--------------------------------------------------------------------------|
A|--------------------------------------------------------------------------|
E|--------------------------------------------------------------------------|

Solo(cont.)
e|---------------14----------12-14-----15-14--14----------------------------|
B|12---15---12h15----12h15--------15-12-----16--12-12h13p10h12--------------|
G|--12---14--------12-----14------------------------------------------------|
D|--------------------------------------------------------------------------|
A|--------------------------------------------------------------------------|
E|--------------------------------------------------------------------------|

Chorus(x2)
e|----------------------------------------------3-2-------3-2-------3-2-----|
B|-------------------------------------------------3---------3---------3----|
G|--12-12-12---11-11-11---12-12-12-11-11-----4-4-------4-4-------4-4--------|
D|2-x--x--x--2-x--x--x--2-x--x--x--x--x-2-2-------2-2-------2-2-------------|
A|2-10-10-10-2-9--9--9--2-10-10-10-9--9-------------------------------------|
E|0----------0----------0---------------------------------------------------|

------------------------------------------------------------------|then end with:
e|------------3-2-------3-2-------3-2-----------------------------|
B|---------------3---------3---------3----7------7-7--------------|
G|----7----4-4-------4-4-------4-4-------5----5-5--------------7--|
D|---5--2-2-------2-2-------2-2-------3-3--3-3-----------------5--|
A|3-3----------------------------------------------------------3--|
E|----------------------------------------------------------------|

Verse(x2)
e|--------------------------------------------------------------------------|
B|--------------------------------------------------------------------------|
G|--------------------------------------------------------------------------|
D|---------------9--------------7--------------9------7---------------------|
A|7-7-7-7-7-9-10--7-7-7-7-7-9-10-7-7-7-7-7-9-10-7-9-10----------------------|
E|--------------------------------------------------------------------------|

e|--------------------------------------------------------------------------|
B|--------------------------------------------------------------------------|
G|--------------------------------------------------------------------------|
D|-------------9--------------7--------------9------7-----------------------|
A|3-3-3-3-3-5-7--3-3-3-3-3-5-7--3-3-3-3-3-5-7--3-5-7------------------------|
E|--------------------------------------------------------------------------|

Bridge
e|--------------------------------------------------------------------------|
B|--------------------------------------------------------------------------|
G|-----------------7-7----------------------7-7---------------------3-3-----|
D|-------5---5-----------------5----5---------------------2---2-------------|
A|3-3-3-3-3-3-3-3-3---3-3-3-3-3--3-3---3-3-3-----0-0-0-0-0-0-0-0-0-0--------|
E|--------------------------------------------------------------------------|

e|--------------------------------------------------------------------------|
B|--------------------------------------------------------------------------|
G|--------------------------------------------------------------------------|
D|-------------------5-5-5-5-3-3-3-3-1-1-1-1--------------------------------|
A|---------3---3----------------------------2-2-2-2-------------------------|
E|1-1-1-1-1-1-1-1-1-1-------------------------------------------------------|

Last part of last chorus
e|--------5-4----------5-4--------5-4-----------------------5-4-------5-4---|
B|-----------5------------5----------5-------------------------5---------5--|
G|----6-6----------6-6--------6-6---------9-------9-9----6-6-------6-6------|
D|4-4----------4-4---------4-4-----------7----7-7-----4-4-------4-4---------|
A|------------------------------------5-5--5-5------------------------------|
E|--------------------------------------------------------------------------|

e|--------5-4--------------5-4-------5-4-------5-4--------------------------|
B|-----------5----------------5---------5---------5--9--11------------------|
G|----6-6----------9---6-6--------6-6-------6-6-----7--9--------------------|
D|4-4-------------7-4-4--------4-4-------4-4-------5--7----4----------------|
A|------------5-5------------------------------------------4----------------|
E|---------------------------------------------------------2----------------|

I didn't do the 2nd solo, b/c that shit is crazy my friend. Just solo in the same scale 
the 1st solo is in.
Enjoy
-Z





Comments


Popular The Sound Of Animals Fighting tabs & chords
Act II: All Is Ash Or The Light Shining Through It" Bass Tabs
Uzbekistan Bass Tabs
Act I: Chasing Suns Tabs
Another Leather Lung Tabs
Another Leather Lung 1 Tabs
Cellophane Intro Tabs
Cellophane Intro 1 Tabs
Lude Tabs
On The Occasion Of Wet Snow Tabs
The Heraldic Beak Of The Manufacturer's Medallion Tabs


Song lyrics



↑ Back to top | Tablatures and chords are parodies/interpretations of the original songs. You may use it for private study, scholarship, research or language learning purposes only
© 2014 AZChords.com Contact us | Privacy policy | DMCA | Add/correct tabs | Request tabs | Top 50 tabs