>
 >
Act I: Chasing Suns

Act I: Chasing Suns Guitar Tabs

The Sound Of Animals Fighting - Act I: Chasing Suns chords, tabs, tablatures, lyrics

Guitar lessons | Add/correct | Request | Top 50 tabs Artists:  A B C D E F G H I J K L M N O P Q R S T U V W X Y Z 0-9

Act I: Chasing Suns Guitar Tabs – The Sound Of Animals Fighting

CD, Sheet music, Poster

Do you like Act I: Chasing Suns? Share with your friends now
TabsTabs v2
Intro:
e|----------------------------------------------------------|
B|----------------------------------------------------------|
G|-------0-------------0-------------3----------------------|
D|-------------------------------------------8-8-8-10-10-10-|
A|-0h3h6---3-3-3-0h3h6---3-3-3-0h3h6---3-3-3-6-6-6-8--8--8--|
E|-------------------------------------------4-4-4-6--6--6--|

e|---------------------------------------------------------||
B|---------------------------------------------------------||
G|-------0-------------0-------------3--------------------*||
D|-------------------------------------------8-8-8-5-5-5--*||
A|-0h3h6---3-3-3-0h3h6---3-3-3-0h3h6---3-3-3-6-6-6-3-3-3---||
E|-------------------------------------------4-4-4-1-1-1---||


Presolo:
e|-------------------------------------------|
B|-------------------------------------------|
G|---12-12-12---12-12-12---11-11-11-11-11-11-|
D|-2-x--x--x--2-x--x--x--2-x--x--x--x--x--x--|
A|-2-10-10-10-2-10-10-10-2-9--9--9--9--9--9--|
E|-0----------0----------0-------------------|
                                                 I like to play the last
                                                 F#9's with a pulloff:
e|-------------------------------------------|   |------|
B|-------------------------------------------|   |------|
G|---12-12-12---11-11-11---12-11-11-11-11-11-|   |-11p9-|
D|-2-x--x--x--2-x--x--x--2-x--x--x--x--x--x--|   |-x----|
A|-2-10-10-10-2-9--9--9--2-10-9--9--9--9--9--|   |-9----|
E|-0----------0----------0-------------------|   |------|

e|------------------------------------------------|
B|------------------------------------------------|
G|---Make lots of noise....and end on this:---9---|
D|--------------------------------------------x---|
A|--------------------------------------------7---|
E|--------------------------------------------0---|


  Solo: [Guitar 1]
e|-12-14-10----15-14----11-14------------------------------------------|
B|----------12-------12-------12-12h13p10h12-12h13p10h12---------------|
G|-------------------------------------------------------12-11-12-11-9-|
D|---------------------------------------------------------------------|
A|---------------------------------------------------------------------|
E|---------------------------------------------------------------------|

e|------------------14-------------12-14-------15-14----14----------------|
B|12----15----12h15-------12h15----------15-12-------16----12-12h13p10h12-|
G|---12----14----------12-------14----------------------------------------|
D|------------------------------------------------------------------------|
A|------------------------------------------------------------------------|
E|------------------------------------------------------------------------|


  Solo: [Guitar 2 with Heavy Distortion]
                              !! These 1's are actually 11's !!
e|------------------------------------------------------------|
B|------------------------------------------------------------|
G|-9-9-9-9-99-99-8-8-8-8-88-88-1-1-1-1-11-11-1-1-1-1-1-11-11--|
D|-x-x-x-x-xx-xx-x-x-x-x-xx-xx-x-x-x-x-xx-xx-x-x-x-x-x-xx-xx--|
A|-7-7-7-7-77-77\6-6-6-6-66-66/9-9-9-9-99-99-9-9-9-9-9-99-99\-|
E|------------------------------------------------------------|
   x x x x       x x x x       x x x x       x x x x x

e|----------------------------------------------|
B|----------------------------------------------|
G|--9-9-9-9-99-99-9-9-9-9-88-88-1-1-1-1-11-11-1-|
D|--x-x-x-x-xx-xx-x-x-x-x-xx-xx-x-x-x-x-xx-xx-x-|
A|-\7-7-7-7-77-77-7-7-7-7-66-66/9-9-9-9-99-99-9-|
E|----------------------------------------------|
    x x x x       x x x x       x x x x         


  Prechorus:
e|-------------------------|
B|-------------------------|
G|--12-12-12---11-11-11--8-|
D|2-x--x--x--2-x--x--x---x-|
A|2-10-10-10-2-9--9--9---6-|
E|0----------0-------------|

  Chorus:
e|---------3-2-------------3-2-------------3-2-----|
B|-------------3-3-------------3-3-------------3-3-|
G|-----4-4-------------4-4-------------4-4---------|
D|-2-2-------------2-2-------------2-2-------------|
A|-------------------------------------------------|
E|-------------------------------------------------|
  __________  ______________________  _____
 |1. 3.     ||2.                    ||4.   |

e|----------||----------------------||-----|
B|----------||----------------------||-----|
G|-------7-*||-------7-------7-----*||--7--|
D|-----5---*||-----5-------5-------*||--5--|
A|-3-3------||-3-3-----3-3-----3-3--||--3--|
E|----------||----------------------||-----|


  Verse:
e|-------------------------------------------------------------|
B|-------------------------------------------------------------|
G|-------------------------------------------------------------|
D|----------------9----------------7----------------9--------7-|
A|-7-7-7-7-7-9-10---7-7-7-7-7-9-10---7-7-7-7-7-9-10---7-9-10---|
E|-------------------------------------------------------------|
                                                    __________
                                                   |1.        |

e|-------------------------------------------------|----------||
B|-------------------------------------------------|----------||
G|-------------------------------------------------|---------*||
D|---------------9---------------7---------------9-|-------7-*||
A|-3-3-3-3-3-5-7---3-3-3-3-3-5-7---3-3-3-3-3-5-7---|-3-5-7----||
E|-------------------------------------------------|----------||
  ___________
 |2.

e|--------------------------------------------------------|
B|--------------------------------------------------------|
G|--------------------------------------------------------|
D|-2-2-2-2-2-2-2-2-4-4-4-5-5-5-7-7-7-9-9-9-14-14-14-16b17-|
A|--------------------------------------------------------|
E|--------------------------------------------------------|


  Prechorus:
e|-------------------------|
B|-------------------------|
G|--12-12-12---11-11-11--8-|
D|2-x--x--x--2-x--x--x---x-|
A|2-10-10-10-2-9--9--9---6-|
E|0----------0-------------|

  Chorus:
e|---------3-2-------------3-2-------------3-2-----|
B|-------------3-3-------------3-3-------------3-3-|
G|-----4-4-------------4-4-------------4-4---------|
D|-2-2-------------2-2-------------2-2-------------|
A|-------------------------------------------------|
E|-------------------------------------------------|
  __________  ______________________  _____
 |1. 3.     ||2.                    ||4.   |

e|----------||----------------------||-----|
B|----------||----------------------||-----|
G|-------7-*||-------7-------7-----*||--7--|
D|-----5---*||-----5-------5-------*||--5--|
A|-3-3------||-3-3-----3-3-----3-3--||--3--|
E|----------||----------------------||-----|


  Bridges are cool:       ______________________  ______________
                         |1. 2. 3.              ||4.            |

e|-----------------------|----------------------||--------------|
B|-----------------------|----------------------||--------------|
G|---12-12-12---11-11-11-|---12-11-11-11-11-11-*||-----12----11-|
D|-2-x--x--x--2-x--x--x--|-2-x--x--x--x--x--x--*||-2---x-----x--|
A|-2-10-10-10-2-9--9--9--|-2-10-9--9--9--9--9---||-2---10----9--|
E|-0----------0----------|-0--------------------||-0------------|



  London Bridge:                                                           _
e|-----------------------------------------------------------------------|  |
B|-----------------------------------------------------------------------|  |
G|-------------------7-7---------------------7-7-------------------------|  |
D|--------5---5-------------------5---5------------------------------8-8-|  |
A|-3-3-3-3-3-3-3-3-3-----3-3-3-3-3-3-3-3-3-3--------------6---6----------|  |
E|-----------------------------------------------4-4-4-4-4-4-4-4-4-4-----|  |
                                                                            | x3
e|------------------------------------------------------||                  |
B|------------------------------------------------------||                  |
G|-----------------------------------------------------*||                  |
D|---------------------5-5-5-5-3-3-3-3-1-1-1-1---------*||                  |
A|----------3---3------------------------------2-2-2-2--||                  |
E|-1-1-1-1-1-1-1-1-1-1----------------------------------|| _________________|

e|--------------Gradually gets noisier and more indistinguishable--------|
B|---------------------------?--------?------?-----?---?--?-?-??????????-|
G|-----------------------------------------------------------------------|
D|--------5---5-------------5---5-------------5---5----------------------|
A|-3-3-3-3-3-3-3-3-3-3-3-3-3-3-3-3-3-3-3-3-3-3-3-3-3-3-3-3-3-3-3-3-3-3-3-|
E|-----------------------------------------------------------------------|



  Solo 2:                                              _
e||----------3-2-------------3-2-------------3-2-----|  |
B||--------------3-3-------------3-3-------------3-3-|  |
G||*-----4-4-------------4-4-------------4-4---------|  |
D||*-2-2-------------2-2-------------2-2-------------|  |
A||--------------------------------------------------|  |
E||--------------------------------------------------|  |
                                                        | x2
e|--------------------------||------------------|       |
B|--------------------------||--7--7--7--7-7-7--|       |
G|-----------------7-7-7-7-*||--5--5--5--5-5-5--|       |
D|---------5-5-5-5---------*||--4--4--4--4-4-4--|       |
A|-3-3-3-3------------------||------------------|       |
E|--------------------------||------------------| ______|

e||----------4-3-------------4-3-------------4-3-----|
B||--------------4-4-------------4-4-------------4-4-|
G||*-----5-5-------------5-5-------------5-5---------|
D||*-3-3-------------3-3-------------3-3-------------|
A||--------------------------------------------------|
E||--------------------------------------------------|

e|--------------------------||------------------|
B|--------------------------||--7--7--7--7-7-7--|
G|-----------------8-8-8-8-*||--5--5--5--5-5-5--|
D|---------6-6-6-6---------*||--4--4--4--4-4-4--|
A|-4-4-4-4------------------||------------------|
E|--------------------------||------------------|

e||----------3-2-------------3-2-------------3-2-----|--------------------------||
B||--------------3-3-------------3-3-------------3-3-|--------------------------||
G||*-----4-4-------------4-4-------------4-4---------|-----------------7-7-7-7-*||
D||*-2-2-------------2-2-------------2-2-------------|---------5-5-5-5---------*||
A||--------------------------------------------------|-3-3-3-3------------------||
E||--------------------------------------------------|--------------------------||

e|------------------------------------------------------------------|
B|--7-7-7-7-7-7--10-10-10-10-10-10--13-13-13-13-13-13--16-16-16/17--|
G|--5-5-5-5-5-5--8--8--8--8--8--8---11-11-11-11-11-11--14-14-14/15--|
D|--4-4-4-4-4-4--7--7--7--7--7--7---10-10-10-10-10-10--13-13-13/14--|
A|------------------------------------------------------------------|
E|------------------------------------------------------------------|


  Prechorus:
e|-------------------------|
B|-------------------------|
G|--12-12-12---11-11-11--8-|
D|2-x--x--x--2-x--x--x---x-|
A|2-10-10-10-2-9--9--9---6-|
E|0----------0-------------|

  Chorus:
e|---------3-2-------------3-2-------------3-2-----|
B|-------------3-3-------------3-3-------------3-3-|
G|-----4-4-------------4-4-------------4-4---------|
D|-2-2-------------2-2-------------2-2-------------|
A|-------------------------------------------------|
E|-------------------------------------------------|
  __________  ______________________  __________  _________________
 |1.        ||2.                    ||3.        ||4.               |

e|----------||----------------------||----------||-----------------|
B|----------||----------------------||----------||-----------------|
G|-------7-*||-------7-------7-----*||-------7-*||-------7-------7-|
D|-----5---*||-----5-------5-------*||-----5---*||-----5-------5---|
A|-3-3------||-3-3-----3-3-----3-3--||-3-3------||-3-3-----3-3-----|
E|----------||----------------------||----------||-----------------|

e||----------5-4-------------5-4-------------5-4-----|
B||--------------5-5-------------5-5-------------5-5-|
G||*-----6-6-------------6-6-------------6-6---------|
D||*-4-4-------------4-4-------------4-4-------------|
A||--------------------------------------------------|
E||--------------------------------------------------|
  ______________________  __________  _____________________ 
 |1.                    ||2. 3.     ||4.                   |

e|----------------------||----------||---------------------||
B|----------------------||----------||---------------------||
G|-------9-------9-----*||-------9-*||-----9-----11--------||
D|-----7-------7-------*||-----7---*||---7-----9----4------||
A|-5-5-----5-5-----5-5--||-5-5------||-5-----7------4------||
E|----------------------||----------||--------------2------||




| /  slide up
| \  slide down
| h  hammer-on
| p  pull-off
| ~  vibrato
| +  harmonic
| x  Mute note
| b  Bend
| r  Release

Thanks Z, you're the best! ^^,





Comments


Popular The Sound Of Animals Fighting tabs & chords
Act IV: You Don't Need A Witness Bass Tabs
My Horse Must Lose Bass Tabs
Uzbekistan Bass Tabs
Act IV: You Don't Need A Witness Tabs
Cellophane Intro Tabs
Cellophane Intro 1 Tabs
I, The Swan Tabs
On The Occasion Of Wet Snow 1 Tabs
The Heraldic Beak Of The Manufacturer's Medallion 2 Tabs
The Heraldic Beak Of The Manufacturers Tabs


Song lyrics



↑ Back to top | Tablatures and chords are parodies/interpretations of the original songs. You may use it for private study, scholarship, research or language learning purposes only
© 2014 AZChords.com Contact us | Privacy policy | DMCA | Add/correct tabs | Request tabs | Top 50 tabs