» » »

Tank Bass tabs (ver.1)

Artists:  A B C D E F G H I J K L M N O P Q R S T U V W X Y Z # 

Tank Bass tabs (ver.1)

The Seatbelts
Rating:
4/5 (8 votes)

Hard to play? Try these video lessons and learn fast.
                ----------------------------------------------------------------------------
			     Tank! - The Seatbelts
----------------------------------------------------------------------------


Tuning: Standard
X2
G|-----------------------------------------|
D|-----------------------------------------|
A|-----9--8--7--5---------9--8--7---5------|
E|--7-------------5h7--7-----------7--5h7--|

X1
G|-----------------------------------------|
D|-----9--8--7--5---------9--8--7---5------|
A|--7-------------5h7--7-----------7--5h7--|
E|-----------------------------------------|

And repeat
I can't hear the bass on certain parts, but
 I'll give it a closer listen later.
Enjoy!
            
Hard to play? Try these video lessons and learn fast. | Correct




comments powered by Disqus
↑ Back to top | Tablatures and chords are parodies/interpretations of the original songs. You may use it for private study, scholarship, research or language learning purposes only