» » »

The Seatbelts, Tank Bass tabs (ver.2)

Artists:  A B C D E F G H I J K L M N O P Q R S T U V W X Y Z # 

Tank Bass tabs (ver.2)

The Seatbelts Tabs
 Rating:
4.3/5 (6 votes)
Tank lessons Tabs too difficult? Try these video lessons and learn fast
1
                
I'm pretty sure that this is right.

Repeat this over and over.
G|--------------------------------------|
D|----0------------------0--------------|
A|-------4--3--1------------4--3--1-----|
E|--3------------1-----3------------1---|

Mix this in once and a while.
G|----0------------------0--------------|
D|-------4--3--1------------4--3--1-----|
A|--3------------1-----3------------1---|
E|--------------------------------------|

Here's another way to play it:
G|-----------------------------------------|
D|-----------------------------------------|
A|-----10--9--8--6----------10--9--8--6----|
E|--8---------------6-----8--------------6-|

G|-----------------------------------------|
D|----10--9--8--6-----------10--9--8--6----|
A|--8--------------6------8--------------6-|
E|-----------------------------------------|

That's it!
            
Submit corrections

comments powered by Disqus
↑ Back to top | The Seatbelts Bass for Tank. Lyrics for acoustic guitar and electric guitar. 1 Tablatures and chords are parodies/interpretations of the original songs. You may use it for private study, scholarship, research or language learning purposes only