» » »

The Script, The End Where I Begin Tabs (ver.1)

Artists:  A B C D E F G H I J K L M N O P Q R S T U V W X Y Z # 

The End Where I Begin Tabs (ver.1)

The Script Tabs
 Rating:
4/5 (4 votes)
The End Where I Begin lessons Tabs too difficult? Try these video lessons and learn fast
                
Tuning: standard eadgbe

INTRO :
e|-----0-----0-----0-----0-----0-------------2-----2---------2-----2--------|
B|---2-----2-----2-----2-----2---2---------2-----2-----2---2-----2-----2----|
G|-4-----4-----4-----4-----4-------------4-----4-----4---3-----3-----3------|
D|--------------------------------------------------------------------------|
A|--------------------------------------------------------------------------|
E|--------------------------------------------------------------------------|


                this part should be barred with forefinger
                                        ____________________________________
                                         |                                 |
e|-----0-----0-----0-----0-----0-------------2-----2---------2-----2--------|
B|---2-----2-----2-----2-----2---2---------2-----2-----2---2-----2-----2----|
G|-4-----4-----4-----4-----4-------------4-----4-----4---3-----3-----3------|
D|--------------------------------------------------------------------------|
A|-4-------------------------------------2----------------------------------|
E|-------------------------------------------------------2------------------|

e|-----0-----0-----0-----0-----0-------------2-----2---------2-----2--------|
B|---2-----2-----2-----2-----2---2---------2-----2-----2---2-----2-----2----|
G|-4-----4-----4-----4-----4-------------4-----4-----4---3-----3-----3------|
D|--------------------------------------------------------------------------|
A|-4------------------------------------------------------------------------|
E|---------------------------------------4---------------2------------------|

Sometimes tears say all there is to say
Sometime your first scars wont ever fade, away
Tried to break my heart
Well it's broke
Tried to hang me high
Well I'm choked
Wanted rain on me
Well I'm soaked
Soaked to the skin 

Outro to verse :
                                           e|-------0---0----------------|
                                           B|-------0---0----------------|
its the end where i begin                  G|-------1---1----------------|   
its the end where i begin ...              D|-----2-----2----------------|
                                           A|---2-------2----------------|
                                           E|-0-------0-0----------------|


Verse 2 : 

Sometimes we don't learn from our mistakes
Sometimes we've no choice but to walk away, away
Tried to break my heart
Well it's broke
Tried to hang me high
Well I'm choked
Wanted rain on me
Well I'm soaked
Soaked to the skin

It's the end where I begin
It's the end where I begin




then comes a chord phase in the song...

Now I'm alive
and my ghosts are gone
I've shed all the pain
I've been holding on
The cure for a heart
Is to move along, is to move along
So move along    {X3}
{use chords below}
     G      A      Bm     C#    D

e|---3------5-------2-----------5-------|    i was using an spanish guitar 
B|---3------5-------3-----------6-------|    while learning this song so if
G|---4------6-------4-----6-----7-------|    these chords sound dodgy on an
D|---5------7-------4-----6-----7-------|    electric you might need to
A|---5------7-------2-----4-----5-------|    fiddle around with them to get
E|---3------5---------------------------|    a better sound...

you'll have to listen to the song to get the strumming pattern it shouldn't be too difficult...

         E

e|-------0----------------------|    strum e three times using  
B|-------0----------------------|    the bass string and variations of
G|-------1----------------------|    the 1st to 4th strings.
D|-------2----------------------|
A|-------2----------------------|    "what don't kill a heart 
E|-------0----------------------|     only makes it strong"

e|-----0-----0-----0-----0-----0-------------2-----2---------2-----2--------|
B|---2-----2-----2-----2-----2---2---------2-----2-----2---2-----2-----2----|
G|-4-----4-----4-----4-----4-------------4-----4-----4---3-----3-----3------|
D|--------------------------------------------------------------------------|
A|-4------------------------------------------------------------------------|
E|---------------------------------------4---------------2------------------|

Sometimes tears say all there is to say
Sometime your first scars dont ever fade, away
Tried to break my heart
Well it's broke
Tried to hang me high
Well I'm choked
Wanted rain on me
Well I'm soaked
Soaked to the skin



for the lines :

"It's the end  
 End where I 
 End where I 
 End where i begin".....repeats....

..revert to the chords for the above lines

      C#     G#     F#

e|----4------4------2-----------------------------------------------------|
B|----5------4------2-----------------------------------------------------|
G|----6------4------3-----------------------------------------------------|
D|----6------6------4-----------------------------------------------------|
A|----4------6------4-----------------------------------------------------|
E|-----------4------2-----------------------------------------------------|

Sometimes we don't learn from our mistakes
Sometimes we've no choice but to walk away, away.....{use below intro again}

e|-----0-----0-----0-----0-----0-------------2-----2---------2-----2--------|
B|---2-----2-----2-----2-----2---2---------2-----2-----2---2-----2-----2----|
G|-4-----4-----4-----4-----4-------------4-----4-----4---3-----3-----3------|
D|--------------------------------------------------------------------------|
A|-4------------------------------------------------------------------------|
E|---------------------------------------4---------------2------------------|


end on F#....whatever floats your boat!

the scripts debut album iswell worth the money{only 10euro} this track especially
            
Submit corrections

comments powered by Disqus
↑ Back to top | The Script Tabs for The End Where I Begin. Lyrics for acoustic guitar and electric guitar. Tablatures and chords are parodies/interpretations of the original songs. You may use it for private study, scholarship, research or language learning purposes only