» » »

The Scene Aesthetic, Yellow Birds Coal Mines Tabs (ver.4)

Artists:  A B C D E F G H I J K L M N O P Q R S T U V W X Y Z # 

Yellow Birds Coal Mines Tabs (ver.4)

The Scene Aesthetic Tabs
 Rating:
4/5 (4 votes)
Yellow Birds Coal Mines lessons Tabs too difficult? Try these video lessons and learn fast
1
                The Scene Aesthetic
Yellow Birds & Coal Mines


hey this is my version of this song
credits to 'I suck bad' for the  jist
the interlude was incomplete in his tab so i thought id finish it


if youre lost then use the lyrics at the end as a guide...


*UPDATE* - 4/12/08
- Guitar 1 in Intro updated
- Basic strum pattern (up/down) included in Intro






Guitar 1:
e|---3--3-3-3-3p0-0-3-----3--3-3-3-3-0-------------|
B|---3--3-3-3-3p0-0-3-----3--3-3-3-3-0-------------|
G|---0--0-0-0-0-0-0-0-----0--0-0-0-0-0-2-0---------|
D|---2--2-2-2-2-2-2-2-----2--2-2-2-2-2-0-2---------|
A|-3-3--3-3-3-3-3-3-3---3-3--3-3-3-3-3-3-----------|\
E|-------------------------------------------------| \_____x2
   d d  d u u u d d u   d d  d u u d u d u           /
                                                   /
e|-----------------------------|                  /
B|-----------------------------|                 /
G|-----------------------------|__x2            /
D|---0--0-0-0----0-0---0-0-0---|               /
A|---2--2-2-2----0-0---2-2-2---|              /
E|-3-3--3-3-3----2-2---0-0-0---|_____________/
   d d  d u u    d d   d d d

Guitar 2: 
e|------------------------10----------------|
B|-----8-10b-8-8------10b----10p8--8-10-8---|
G|-7-9--------------------------------------|
D|------------------------------------------|
A|------------------------------------------|
E|------------------------------------------|

e|------------------------------------------------|
B|------8-----8-----8-----8-----8--------------8--|
G|--7h9---7h9---7h9---7h9---7h9---7h9--7---7h9----|
D|---------------------------------------9--------|
A|------------------------------------------------|
E|------------------------------------------------|


      ___________
e|---3----3---|           \
B|---3----3---|            \
G|---0----0---|             \
D|---2----2---|              \
A|-3-3--3-3---|               \
E|------------|                \
		   	        \_____x2
e|---3-3-3-3----3-3----3-3----| /
B|---3-3-3-3----3-3----3-3----|/
G|---0-0-0-0----0-0----0-0----|
D|---0-0-0-0----0-0----2-2----|
A|---2-2-2-2----0-0----2-2----|
E|-3-3-3-3-3--2-2-2--0-0-0----|

e|---3-3-3-0-0-3----3-3-3-0-------------|
B|---3-3-3-0-0-3----3-3-3-0-------------|
G|---0-0-0-0-0-0----0-0-0-0-2-0---------|
D|---2-2-2-2-2-2----2-2-2-2-0-2---------|
A|-3-3-3-3-3-3-3--3-3-3-3-3-3-3---------|\
E|--------------------------------------| \_____x2
			       	          /
e|---3-3-3-----3-3----3-3-3--|           /
B|---3-3-3-----3-3----3-3-3--|          /
G|---0-0-0-----0-0----0-0-0--|__x2     /
D|---0-0-0-----0-0----0-0-0--|        /
A|---2-2-2-----0-0----2-2-2--|       /
E|-3-3-3-3---2-2-2--0-0-0-0--|______/


 
e|-3---3---|
B|-3---3---|
G|-0---0---|
D|-2---2---|
A|-2---3---|
E|-0-------|



e|--2---------3--3--|
B|--3--7--8---3--3--|
G|--0--0--0---0--0--|__x2
D|--0--5--5---0--2--|
A|--3--7--7---2--3--|
E|------------3-----|


 
e|---3-3-3-0-0-3----3-3-3-0-------------|
B|---3-3-3-0-0-3----3-3-3-0-------------|
G|---0-0-0-0-0-0----0-0-0-0-2-0---------|
D|---2-2-2-2-2-2----2-2-2-2-0-2---------|
A|-3-3-3-3-3-3-3--3-3-3-3-3-3-3---------|\
E|--------------------------------------| x2 
				          /  
e|---------------------------|           /
B|---------------------------|          /
G|---------------------------|__x2_____/__________Ignore last two chords on 
D|---0-0-0-----0-0----0-0-0--|        /           the last time around...
A|---2-2-2-----0-0----2-2-2--|       /            listen to the song and
E|-3-3-3-3---2-2-2--0-0-0-0--|______/             you'll get it...



e|---3-3-3-0-0-3----3-3-3-0-------------|
B|---3-3-3-0-0-3----3-3-3-0-------------|
G|---0-0-0-0-0-0----0-0-0-0-2-0---------|
D|---2-2-2-2-2-2----2-2-2-2-0-2---------|
A|-3-3-3-3-3-3-3--3-3-3-3-3-3-3---------|\
E|--------------------------------------| \__x2
		      		          /  
e|---3-3-3-----3-3---3-3-3--|            /
B|---3-3-3-----3-3---3-3-3--|           /
G|---0-0-0-----0-0---0-0-0--|          /
D|---0-0-0-----0-0---0-0-0--|         /
A|---2-2-2-----0-0---2-2-2--|        /
E|-3-3-3-3---2-2-2-0-0-0-0--|_______/



e|---3----3---|
B|---3----3---|
G|---0----0---|
D|---2----2---|
A|---3----3---|
E|------------|



e|--2---------3--3--|
B|--3--7--8---3--3--|
G|--0--0--0---0--0--|__x2
D|--0--5--5---0--2--|
A|--3--7--7---2--3--|
E|------------3-----|



Guitar 1
e|---2----2h3-3------2--2h3---3--------|
B|---3----3---3------3--3-----3--------|
G|---0----0---0------0--0-----0--------|
D|---0----0---2------0--0-----0--------|
A|---3----3---3------3--3-----2--------|
E|----------------------------3--------|

e|---3----------3-------------------3--------------3---------------|
B|---3----------3-------------------3--------------3---------------|
G|---0—--0h2-0--0-0---------0-------0-0---2-0---0--0---------------|
D|---2----------0—--0---0h2---2-0---2---0-----0----0---------------|
A|---3----------2-----2-------------3--------------0h2--0—0h2-0----|
E|--------------3----------------------------------0h3-------------|


e|---3--------3-----------------3---2---3---3p2----|
B|---3--------3-----------------3---3---3---3------|
G|---0—0h2-0--0-0---------0-----0---0---0---0------|
D|---2--------0---0-----0---0---2---0---0---0------|
A|---3--------2-----2-3---------3---3---3---3------|
E|------------3------------------------------------|

Guitar 2
e|---10--------------------------10---------------------------|
B|------8-8h10-12---12--------------8-8h10-12---12p10--10--8--|
G|---------------------9-9~-7---------------------------------|
D|------------------------------------------------------------|
A|------------------------------------------------------------|
E|------------------------------------------------------------|

e|---10--------------------------------------------|
B|------8-10-8--------8h10-8-----------------------|
G|-------------7h9p7---------9---9-7---7---9-7-0---|
D|-----------------------------------7-------------|
A|-------------------------------------------------|
E|-------------------------------------------------|

e|-------------------------------------------2---3---3p2---|
B|--------------------------------5-6--------3---3---3-----|
G|----------------------------7-5-----5------0---0---0-----|
D|---7-5------7-5---7-5----------------------0---0---0-----|
A|-------5--------5-----5-7------------------3---3---3-----|
E|---------------------------------------------------------|




e|-3-3-------|
B|-3-3--7-8--|
G|-0-0--0-0--|__x4
D|-2-0--5-5--|
A|-3-2--7-7--|
E|-----------|

e|-3-3------|
B|-3-3---7--|
G|-0-0---0--|__x2
D|-2-0---5--|
A|-3-2---7--|
E|----------|


 
e|--3-----3--3--|
B|--3--7--3--3--|
G|--0--0--0--0--|
D|--2--5--0--2--|
A|--3--7--2--3--|
E|--------------|

Lyrics:

Verse 1:
Gather around me
I need some time to recollect these thoughts of mine
You’re so kind to stand behind me
Help me face these fears I’ve built over the years
It’s so clear – you’re always here
I wouldn’t leave you here like this
And I'm desperate, oh so desperate to feel alive
You need someone to help you
You’re so kind
Please let me guide you through this
To offer assistance in my interest
Well I could’ve never made it through the night
It’s alright

Pre-chorus:
Cause we saw this coming through
And I'm still here

Chorus:
Keep me here I believe
Finding faith you must agree
Upon a state of action
Keep me posted, still in action
I keep you here cause I believe
Finding faith is what I need
To take the chances I must take
Before my heart begins to break

Verse 2:
I know you have it hard sometimes
Don’t let the bad things rule your life
Sit back and watch your life take flight
You’re just so young you have the time
The time

Pre-chorus:
Just leave it alone
Just leave it alone
Just leave it alone

Chorus:
Keep me here I believe
Finding faith you must agree
Upon a state of action
Keep me posted, still in action
I keep you here cause I believe
Finding faith is what I need
To take the chances I must take
Before my heart begins to break

Interlude:
Before my heart begins to break

Bridge:
Thanks for being here my friend
Thanks for being here my friend
Here with me till the very end in time
We’re gonna do this one together
Thanks for being here my friend
Thanks for being here my friend
Here with me till the very end in time
We’re gonna do this one together
Thanks for being here my friend
We’re gonna do this one together
Thanks for being here my friend

Outro:
Keep me here I believe
Finding faith you must agree
Upon a state of action
Keep me posted, still in action
            
Submit corrections

comments powered by Disqus
↑ Back to top | The Scene Aesthetic Tabs for Yellow Birds Coal Mines. Lyrics for acoustic guitar and electric guitar. 1 Tablatures and chords are parodies/interpretations of the original songs. You may use it for private study, scholarship, research or language learning purposes only