» » »

Yellow Birds Coal Mines Tabs (ver.3)

Artists:  A B C D E F G H I J K L M N O P Q R S T U V W X Y Z # 

Yellow Birds Coal Mines Tabs (ver.3)

The Scene Aesthetic
Rating:
3/5 (1 vote)

Hard to play? Try these video lessons and learn fast.
                (Intro)
Okay, so this is my first time trying to figure out a song EVER.
They're a good band and not many people know about them.

You guys have to start tabbing there stuff out.
Any acoustic lover will like thies guys.

Tuning: eBGDAE


     INTRO
 
e|---x-x-x-x-x-x-x-x-x-x-x-x-x-x-x---|
B|---2-2-2p0-2p0-2p0-2-2-2p0-2-2-2---|
G|---0-0-0-0-0-0-0-0-0-0-0-0-1p0-0---|
D|---2-2-2-2-2-2-2-2-2-2-2-2-0-0-2---|
A|-3-3-3-3-3-3-3-3-3-3-3-3-3-3-3-3---|
E|---x-x-x-x-x-x-x-x-x-x-x-x-x-x-x---|
 
e|--222-22-222------|
B|--222-22-222------|
G|--000-00-000------|
D|--000-00-222------|
A|--222-00-222------|
E|--333-22-000------|
            
Hard to play? Try these video lessons and learn fast. | Correct




comments powered by Disqus
↑ Back to top | Tablatures and chords are parodies/interpretations of the original songs. You may use it for private study, scholarship, research or language learning purposes only