>
 >
Heavy Lies The Crown 1

Heavy Lies The Crown 1 Guitar Tabs

The Scene Aesthetic - Heavy Lies The Crown 1 chords, tabs, tablatures, lyrics

Guitar lessons | Add/correct | Request | Top 50 tabs Artists:  A B C D E F G H I J K L M N O P Q R S T U V W X Y Z 0-9

Heavy Lies The Crown 1 Guitar Tabs – The Scene Aesthetic

CD, Sheet music, Poster

Do you like Heavy Lies The Crown 1? Share with your friends now
ChordsChords v2TabsTabs v2Tabs v3Ukulele


Don't you just love this song? :D
Version 1 didn't really make the cut for me with the one guitar part...
I added on the part that Andrew plays (as guitar 2) and made a few touch ups,
but it is basically the same.
Capo on the 2nd fret.
Guitar 2 will come in first, playing through the time that guitar 1 covers the chords.
You'll find that there may be a few more notes added to the second guitar part
that don't really exist;
They sound pretty sweet and they give the second guitarist something more to play,
so I just stuck them in there.
Listen to the song for the strumming pattern.
Also, credit to John Lee for the base!
Thanks, and enjoy.

Intro:(0:00-0:25)

Guitar 1:
e------0-0-3-3-3---3-3-3-3---3-3-3-3-3-3------|
B------0-0-3-3-3---3-3-3-3---3-3-3-3-3-3------|
G------0-0-0-0-0---0-0-0-0---0-0-0-0-0-0------| 4x
D------2-2-2-2-2---2-2-2-2---0-0-0-0-0-0------|
A------2-2-2-2-2---3-3-3-3---2-2-2-2-2-2------|
E----------0-0-0---0-0-0-0---3-3-3-3-3-3------|

Guitar 2:
e-------------------------------|
B-------------------------------|
G----0-----0-0---0-0---0----0-0-|
D---2-2p0-2-2-2-----------------|  4x
A---------------3-3-3-2-2-2--2--|
E-------------------------------|

Pre-verse: (0:26-0:49)

Guitar 1:
e------0-0-3-3-3---3-3-3-3---3-3-3-3-3-3------|
B------0-0-3-3-3---3-3-3-3---3-3-3-3-3-3------|
G------0-0-0-0-0---0-0-0-0---0-0-0-0-0-0------| 4x
D------2-2-2-2-2---2-2-2-2---0-0-0-0-0-0------|
A------2-2-2-2-2---3-3-3-3---2-2-2-2-2-2------|
E----------0-0-0---0-0-0-0---3-3-3-3-3-3------|

Guitar 2:
e-------------------------------|
B-------------------------------|
G----0-----0-0---0-0---0----0-0-|  4x
D---2-2p0-2-2-2-----------------|
A---------------3-3-3-2-2-2--2--|
E-------------------------------|

Verse:(0:50-1:02)

e--0----0----0----0--|
b--0----0----0----0--|
g--2----0----0----0--|
d--2----2---2----0--|
a--0----3----2----2--|
e--0----0----0----3--|


e--0----0----2----3--|
b--0----0----0----0--|
g--2----0----0----0--|
d--2----2---2----2--|
a--0----3----2----2--|
e--0----0----0----0--|

Chorus:(1:03-1:25)

e--3----3----3----0----0---|
b--3----3----3----0----0---|
g--0----0----0----2----0---| 2x
d--2----0----2----2----2---|
a--2----2----3----0----3---|
e--0----3----0----0----0---|

Outro: (1:26-1:37)

Guitar 1:
e------0-0-3-3-3---3-3-3-3---3-3-3-3-3-3------|
B------0-0-3-3-3---3-3-3-3---3-3-3-3-3-3------|
G------0-0-0-0-0---0-0-0-0---0-0-0-0-0-0------| 2x
D------2-2-2-2-2---2-2-2-2---0-0-0-0-0-0------|
A------2-2-2-2-2---3-3-3-3---2-2-2-2-2-2------|
E----------0-0-0---0-0-0-0---3-3-3-3-3-3------|

Guitar 2:
e-------------------------------|
B-------------------------------|
G----0-----0-0---0-0---0----0-0-|
D---2-2p0-2-2-2-----------------|  2x
A---------------3-3-3-2-2-2--2--|
E-------------------------------|

Pre-verse: (1:38-2:03)

e-3-3-3-3-3-3-3--3-3-3-3---3-3-3-3-3-3-3-----|
B-3-3-3-3-3-3-3--3-3-3-3---3-3-3-3-3-3-3-----|
G-0-0-0-0-0-0-0--0-0-0-0---0-0-0-0-0-0-0-----| 2x
D-0-0-2-2-2-2-2--2-2-2-2---0-0-0-0-0-0-0-----|
A-2-2-2-2-2-2-2--3-3-3-3---2-2-2-2-2-2-2-----|
E-3-2-0-0-0-0-0--0-0-0-0---3-3-3-3-3-3-3-----|

e-3-3-3-3--3-3-3-3---3-3-3-3-3-3-3-----|
B-3-3-3-3--3-3-3-3---3-3-3-3-3-3-3-----|
G-0-0-0-0--0-0-0-0---0-0-0-0-0-0-0-----|
D-2-2-2-2--2-2-2-2---0-0-0-0-0-0-0-----|
A-2-2-2-2--3-3-3-3---2-2-2-2-2-2-2-----|
E-0-0-0-0--0-0-0-0---3-3-3-3-3-3-3-----|

e----3-3-3-3-3-3-3--3-3-3-3---3-3-3-3-3-3-3-----|
B----3-3-3-3-3-3-3--3-3-3-3---3-3-3-3-3-3-3-----|
G----0-0-0-0-0-0-0--0-0-0-0---0-0-0-0-0-0-0-----|
D----0-0-2-2-2-2-2--2-2-2-2---0-0-0-0-0-0-0-----|
A----2-2-2-2-2-2-2--3-3-3-3---2-2-2-2-2-2-2-----|
E----3-2-0-0-0-0-0--0-0-0-0---3-3-3-3-3-3-3-----|

e-3-3-3-3--3-3-3-3---3-3-3-3-3-3-3-----|
B-3-3-3-3--3-3-3-3---3-3-3-3-3-3-3-----|
G-0-0-0-0--0-0-0-0---0-0-0-0-0-0-0-----|
D-2-2-2-2--2-2-2-2---0-0-0-0-0-0-0-----|
A-2-2-2-2--3-3-3-3---2-2-2-2-2-2-2-----|
E-0-0-0-0--0-0-0-0---3-3-3-3-3-3-3-----|

Verse:(2:04-2:16)

e--0----0----0----0-0-0-0-0-0-0-0-0-0--|
b--0----0----0----0-0-0-0-0-0-0-0-0-0--|
g--0----0----0----0-0-0-0-0-0-0-0-0-0--| 2x
d--2----2---2----2-2-2-2-2-2-2-2-2-2--|
a--3----3----3----3-3-3-3-3-3-3-3-3-3--|
e--0----0----0----0-0-0-0-0-0-0-0-0-0--|

Chorus:(2:17-2:41)

e--3----3----3----0----0---|
b--3----3----3----0----0---|
g--0----0----0----2----0---| 2x
d--2----0----2----2----2---|
a--2----2----3----0----3---|
e--0----3----0----0----0---|

Verse:(2:42-3:09)

e--0-----0--0--0--0---0--0--0--0---0--0--0--0---0--0--00000000-|
b--0-----0--0--0--3---0--0--0--3---0--0--0--3---0--0--00000000-|
g--0-----2--0--0--0---2--0--0--0---2--0--0--0---2--0--00000000-|
d--2-----2--2--2--2---2--2--2--2---2--2--2--2---2--2--22222222-|
a--3-----0--3--2--3---0--3--2--3---0--3--2--3---0--3--22222222-|
e--0-----0--0--0--0---0--0--0--0---0--0--0--0---0--0--00000000-|


Chorus:(3:10-3:56)

e--3----3----3----0----0---|
b--3----3----3----0----0---|
g--0----0----0----2----0---| 4x
d--2----0----2----2----2---|
a--2----2----3----0----3---|
e--0----3----0----0----0---|

Conclusion: (3:58-4:13)

Guitar 1:
e------0-0-3-3-3---3-3-3-3---3-3-3-3-3-3------|
B------0-0-3-3-3---3-3-3-3---3-3-3-3-3-3------|
G------0-0-0-0-0---0-0-0-0---0-0-0-0-0-0------| 2x
D------2-2-2-2-2---2-2-2-2---0-0-0-0-0-0------|
A------2-2-2-2-2---3-3-3-3---2-2-2-2-2-2------|
E----------0-0-0---0-0-0-0---3-3-3-3-3-3------|

Guitar 2:
e-------------------------------|
B-------------------------------|
G----0-----0-0---0-0---0----0-0-|
D---2-2p0-2-2-2-----------------| 2x
A---------------3-3-3-2-2-2--2--|
E-------------------------------|

End.

Hope you like it!<3





Comments


Popular The Scene Aesthetic tabs & chords
Alamo Is No Place For Dancing 1 Chords
Talk About Love Chords
To The Steadfast Chords
Humans Intro 1 Tabs
Katy Give Me A Shot Tabs
Landons Summer Diary Tabs
Love Through Postcards Tabs
The Man I Am 1 Tabs
Grace Looks Back Ukulele
Humans Ukulele


Song lyrics



↑ Back to top | Tablatures and chords are parodies/interpretations of the original songs. You may use it for private study, scholarship, research or language learning purposes only
© 2014 AZChords.com Contact us | Privacy policy | DMCA | Add/correct tabs | Request tabs | Top 50 tabs