» » »

The Scene Aesthetic, Alvin Maker's Greensong Tabs (ver.2)

Artists:  A B C D E F G H I J K L M N O P Q R S T U V W X Y Z # 

Alvin Maker's Greensong Tabs (ver.2)

The Scene Aesthetic Tabs
 Rating:
4/5 (4 votes)
Alvin Maker's Greensong lessons Tabs too difficult? Try these video lessons and learn fast
                so just watch how andrew plays it if you need help with it. (or listen to the song)
oh and PLEASE PLEASE PLEASE comments/ratings. =] 


INTRO 
e|-------------------------------------------------------|
B|---------0-------------0-----------0--------7----------|
G|-----4-------------4-----------4------------8-8--------|
D|-------2-------------2-----------2---------------------|
A|---0-------------0-----------0------------7------------|
E|-------------------------------------------------------|

e|-------------------------------------------------------|
B|---------0-------------0-----------0--------7h9--------|
G|-----4-------------4-----------4------------8----------|
D|-------2-------------2-----------2---------------------|
A|---0-------------0-----------0------------7------------|
E|-------------------------------------------------------|

e|-------------------------------------------------------|
B|---------0-------------0-----------0--------7----------|
G|-----4-------------4-----------4------------8-8--------|
D|-------2-------------2-----------2---------------------|
A|---0-------------0-----------0------------7------------|
E|-------------------------------------------------------|

e|-------------------------------------------------------|
B|---------0-------------0-----------0--------7----------|
G|-----4-------------4-----------4------------8-8--------|
D|-------2-------------2-----------2---------------------|
A|---0-------------0-----------0------------7------------|
E|-------------------------------------------------------|

e|-------------------------------0-----------------------|
B|---------0-------------0-------0-----------------------|
G|-----4-------------4-----------4-----------------------|
D|-------2-------------2---------2-----------------------|
A|---0-------------0-------------0-----------------------|
E|-------------------------------------------------------|








VERSE 
fighting to keep this alive                     constantly 
e|--------------------------------------------------------|
B|-----------------------------------------------7--7--7--|
G|---4--4--4--4-----4--4--4--4-----4--4--4--4----8--8--8--|
D|---2--2--2--2-----2--2--2--2-----2--2--2--2----x--x--x--|
A|---0--0--0--0-----0--0--0--0-----0--0--0--0----7--7--7--|
E|--------------------------------------------------------|

fighting to keep myself going                    dear friend I 
e|--------------------------------------------------------|
B|-----------------------------------------------7--7--7--|
G|---4--4--4--4-----4--4--4--4-----4--4--4--4----8--8--8--|
D|---2--2--2--2-----2--2--2--2-----2--2--2--2----x--x--x--|
A|---0--0--0--0-----0--0--0--0-----0--0--0--0----7--7--7--|
E|--------------------------------------------------------|

haven't the slightest desire                    to help keep you
e|--------------------------------------------------------|
B|-----------------------------------------------7--7--7--|
G|---4--4--4--4-----4--4--4--4-----4--4--4--4----8--8--8--|
D|---2--2--2--2-----2--2--2--2-----2--2--2--2----x--x--x--|
A|---0--0--0--0-----0--0--0--0-----0--0--0--0----7--7--7--|
E|--------------------------------------------------------|

going ..
e|-----------------------------------------------------------|
B|-----------------------------------------------------------|
G|---4--4--4--4-----4--4--4--4-----4--4--4--4----4--4--4--4--|
D|---2--2--2--2-----2--2--2--2-----2--2--2--2----2--2--2--2--|
A|---0--0--0--0-----0--0--0--0-----0--0--0--0----0--0--0--0--|
E|-----------------------------------------------------------|

keep to myself all time                         try to a-
e|--------------------------------------------------------|
B|-----------------------------------------------7--7--7--|
G|---4--4--4--4-----4--4--4--4-----4--4--4--4----8--8--8--|
D|---2--2--2--2-----2--2--2--2-----2--2--2--2----x--x--x--|
A|---0--0--0--0-----0--0--0--0-----0--0--0--0----7--7--7--|
E|--------------------------------------------------------|

void all the lines and the things that they     say 
e|--------------------------------------------------------|
B|-----------------------------------------------7--7--7--|
G|---4--4--4--4-----4--4--4--4-----4--4--4--4----8--8--8--|
D|---2--2--2--2-----2--2--2--2-----2--2--2--2----x--x--x--|
A|---0--0--0--0-----0--0--0--0-----0--0--0--0----7--7--7--|
E|--------------------------------------------------------|


fighting to keep this alive..                   constantly 
e|--------------------------------------------------------|
B|-----------------------------------------------7--7--7--|
G|---4--4--4--4-----4--4--4--4-----4--4--4--4----8--8--8--|
D|---2--2--2--2-----2--2--2--2-----2--2--2--2----x--x--x--|
A|---0--0--0--0-----0--0--0--0-----0--0--0--0----7--7--7--|
E|--------------------------------------------------------|

fighting to keep myself going ..
e|-----------------------------------------------------------|
B|-----------------------------------------------------------|
G|---4--4--4--4-----4--4--4--4-----4--4--4--4----4--4--4--4--|
D|---2--2--2--2-----2--2--2--2-----2--2--2--2----2--2--2--2--|
A|---0--0--0--0-----0--0--0--0-----0--0--0--0----0--0--0--0--|
E|-----------------------------------------------------------|








PRECHORUS 
please don't ..
e|-----------------------------------------------------------|
B|-----------------------------------------------------------|
G|---6--6--6--6-----6--6--6--6-----6--6--6--6----6--6--6--6--|
D|---6--6--6--6-----6--6--6--6-----6--6--6--6----6--6--6--6--|
A|---4--4--4--4-----4--4--4--4-----4--4--4--4----4--4--4--4--|
E|-----------------------------------------------------------|

can't keep ..
e|-----------------------------------------------------------|
B|-----------------------------------------------------------|
G|---4--4--4--4-----4--4--4--4-----4--4--4--4----4--4--4--4--|
D|---4--4--4--4-----4--4--4--4-----4--4--4--4----4--4--4--4--|
A|---2--2--2--2-----2--2--2--2-----2--2--2--2----2--2--2--2--|
E|-----------------------------------------------------------|

go..
e|-------------------------------------------------------|
B|-------------------------------------------------------|
G|---4----------4--4--4--4-----4--4--4--4----4--4--4--4--|
D|---2----------2--2--2--2-----2--2--2--2----2--2--2--2--|
A|---0----------0--0--0--0-----0--0--0--0----0--0--0--0--|
E|-------------------------------------------------------|







CHORUS
as you escape from your life, this house become hollow and 
e|-----------------------------------------------------------|
B|-------7--7--7--7------------------------------------------|
G|-------8--8--8--8-----------------9--9--9--9---------------|
D|-------x--x--x--x-----------------9--9--9--9---------------|
A|-------7--7--7--7-----------------x--x--x--x---------------|
E|----------------------------------9--9--9--9---------------|

all we can do is just wait .. sit here and 
e|-----------------------------------------------------------|
B|-----------------------------------------------------------|
G|---4--4--4--4-----4--4--4--4-----4--4--4--4----4--4--4--4--|
D|---2--2--2--2-----2--2--2--2-----2--2--2--2----2--2--2--2--|
A|---0--0--0--0-----0--0--0--0-----0--0--0--0----0--0--0--0--|
E|-----------------------------------------------------------|

wait for this train to            arrive, i've got my bags 
e|-----------------------------------------------------------|
B|-----------------------------------------------------------|
G|---4--4--4--4-----4--4--4--4-----6--6--6--6----6--6--4--6--|
D|---4--4--4--4-----4--4--4--4-----6--6--6--6----6--6--6--6--|
A|---2--2--2--2-----2--2--2--2-----4--4--4--4----4--4--4--4--|
E|-----------------------------------------------------------|

packed and i've said my goodbyes, constantly 
e|-----------------------------------------------------------|
B|-----------------------------------------------------------|
G|---4--4--4--4-----4--4--4--4-----4--4--4--4----4--4--4--4--|
D|---2--2--2--2-----2--2--2--2-----2--2--2--2----2--2--2--2--|
A|---0--0--0--0-----0--0--0--0-----0--0--0--0----0--0--0--0--|
E|-----------------------------------------------------------|

giving into       these     moments that just bring me  
e|-----------------------------------------------------------|
B|---7--7--7--7----------------------------------------------|
G|---8--8--8--8--------------9--9--9--9----------------------|
D|---x--x--x--x--------------9--9--9--9----------------------|
A|---7--7--7--7--------------x--x--x--x----------------------|
E|---------------------------9--9--9--9----------------------|

down, just bring to me close enough to stay a-
e|-----------------------------------------------------------|
B|-----------------------------------------------------------|
G|---4--4--4--4-----4--4--4--4-----4--4--4--4----4--4--4--4--|
D|---2--2--2--2-----2--2--2--2-----2--2--2--2----2--2--2--2--|
A|---0--0--0--0-----0--0--0--0-----0--0--0--0----0--0--0--0--|
E|-----------------------------------------------------------|

round..                                             to stay around 
e|----------------------------------------------------------------|
B|----------------------------------------------------------------|
G|---4--4--4--4-----4--4--4--4-----6--6--6--6----6--6--4--6----4--|
D|---4--4--4--4-----4--4--4--4-----6--6--6--6----6--6--6--6----2--|
A|---2--2--2--2-----2--2--2--2-----4--4--4--4----4--4--4--4----0--|
E|----------------------------------------------------------------|









VERSE
                                   keeping to yourself..
e|----------------------------------------------------------|
B|---------0-------------0----------------------------------|
G|-----4-------------4----------4--4--4--4--4--4--4--4--4---|
D|-------2-------------2--------2--2--2--2--2--2--2--2--2---|
A|---0-------------0------------0--0--0--0--0--0--0--0--0---|
E|----------------------------------------------------------|

fight what's                 coming ..
e|-----------------------------------------------------------|
B|---7--7--7--7----------------------------------------------|
G|---8--8--8--8--------------9--9--9--9----------------------|
D|---x--x--x--x--------------9--9--9--9----------------------|
A|---7--7--7--7--------------x--x--x--x----------------------|
E|---------------------------9--9--9--9----------------------|

and all you can do ..                               
e|-----------------------------------------------------------|
B|-----------------------------------------------------------|
G|---4--4--4--4-----4--4--4--4-----4--4--4--4----4--4--4--4--|
D|---2--2--2--2-----2--2--2--2-----2--2--2--2----2--2--2--2--|
A|---0--0--0--0-----0--0--0--0-----0--0--0--0----0--0--0--0--|
E|-----------------------------------------------------------|

                            there, cause you keep 
e|-----------------------------------------------------------|
B|---7--7--7--7----------------------------------------------|
G|---8--8--8--8--------------9--9--9--9----------------------|
D|---x--x--x--x--------------9--9--9--9----------------------|
A|---7--7--7--7--------------x--x--x--x----------------------|
E|---------------------------9--9--9--9----------------------|

waiting .. for someone to save you, em-
e|-----------------------------------------------------------|
B|-----------------------------------------------------------|
G|---4--4--4--4-----4--4--4--4-----4--4--4--4----4--4--4--4--|
D|---2--2--2--2-----2--2--2--2-----2--2--2--2----2--2--2--2--|
A|---0--0--0--0-----0--0--0--0-----0--0--0--0----0--0--0--0--|
E|-----------------------------------------------------------|

brace you..                 take you away, far a-
e|-----------------------------------------------------------|
B|---7--7--7--7----------------------------------------------|
G|---8--8--8--8--------------9--9--9--9----------------------|
D|---x--x--x--x--------------9--9--9--9----------------------|
A|---7--7--7--7--------------x--x--x--x----------------------|
E|---------------------------9--9--9--9----------------------|

way
e|-----------------------------------------------------------|
B|-----------------------------------------------------------|
G|---4--4--4--4-----4--4--4--4-----4--4--4--4----4--4--4--4--|
D|---2--2--2--2-----2--2--2--2-----2--2--2--2----2--2--2--2--|
A|---0--0--0--0-----0--0--0--0-----0--0--0--0----0--0--0--0--|
E|-----------------------------------------------------------|

                            place ..
e|--------------------------------------------------------|
B|---7--7--7--7-------------------------------------------|
G|---8--8--8--8--------------9----------------------------|
D|---x--x--x--x--------------9----------------------------|
A|---7--7--7--7--------------x----------------------------|
E|---------------------------9----------------------------|






BRIDGE 
e|--------------------------------------------------------------|
B|--------------------------------------------------------------|
G|---6--6--6--6-----8--8--8--8-----9--9--9--9-----4--4--4--4----|
D|---x--x--x--x-----x--x--x--x-----x--x--x--x-----x--x--x--x----|
A|---4--4--4--4-----6--6--6--6-----7--7--7--7-----2--2--2--2----|
E|--------------------------------------------------------------|

e|--------------------------------------------------------------|
B|--------------------------------------------------------------|
G|---6--6--6--6-----8--8--8--8-----4--4--4--4-------------------|
D|---x--x--x--x-----x--x--x--x-----2--2--2--2-------------------|
A|---4--4--4--4-----6--6--6--6-----0--0--0--0-------------------|
E|--------------------------------------------------------------|

running away                                     so far a-
e|--------------------------------------------------------------|
B|--------------------------------------------------------------|
G|---6--6--6--6-----8--8--8--8-----9--9--9--9-----4--4--4--4----|
D|---x--x--x--x-----x--x--x--x-----x--x--x--x-----x--x--x--x----|
A|---4--4--4--4-----6--6--6--6-----7--7--7--7-----2--2--2--2----|
E|--------------------------------------------------------------|

   way ..                                 running a-
e|--------------------------------------------------------------|
B|--------------------------------------------------------------|
G|---6--6--6--6-----8--8--8--8-----4--4--4--4-------------------|
D|---x--x--x--x-----x--x--x--x-----2--2--2--2-------------------|
A|---4--4--4--4-----6--6--6--6-----0--0--0--0-------------------|
E|--------------------------------------------------------------|

   way ..                                        so far a-
e|--------------------------------------------------------------|
B|--------------------------------------------------------------|
G|---6--6--6--6-----8--8--8--8-----9--9--9--9-----4--4--4--4----|
D|---x--x--x--x-----x--x--x--x-----x--x--x--x-----x--x--x--x----|
A|---4--4--4--4-----6--6--6--6-----7--7--7--7-----2--2--2--2----|
E|--------------------------------------------------------------|

  way ..                     I can't stay, I can't stay with you here..
e|-----------------------------------------------------------------|
B|-----------------------------------------------------------------|
G|---6--6--6--6-----8--8--8--8--------4----------------------------|
D|---x--x--x--x-----x--x--x--x--------2----------------------------|
A|---4--4--4--4-----6--6--6--6--------0----------------------------|
E|-----------------------------------------------------------------|

I can't stay, I can't stay with you here.
e|---------------------------------------|
B|---------------------------------------|
G|-------4-------------------------------|
D|-------2-------------------------------|
A|-------0-------------------------------|
E|---------------------------------------|







CHORUS
as you escape from your life, this house become hollow and 
e|-----------------------------------------------------------|
B|-------7--7--7--7------------------------------------------|
G|-------8--8--8--8-----------------9--9--9--9---------------|
D|-------x--x--x--x-----------------9--9--9--9---------------|
A|-------7--7--7--7-----------------x--x--x--x---------------|
E|----------------------------------9--9--9--9---------------|

all we can do is just wait .. sit here and 
e|-----------------------------------------------------------|
B|-----------------------------------------------------------|
G|---4--4--4--4-----4--4--4--4-----4--4--4--4----4--4--4--4--|
D|---2--2--2--2-----2--2--2--2-----2--2--2--2----2--2--2--2--|
A|---0--0--0--0-----0--0--0--0-----0--0--0--0----0--0--0--0--|
E|-----------------------------------------------------------|

wait for this train to            arrive, i've got my bags 
e|-----------------------------------------------------------|
B|-----------------------------------------------------------|
G|---4--4--4--4-----4--4--4--4-----6--6--6--6----6--6--4--6--|
D|---4--4--4--4-----4--4--4--4-----6--6--6--6----6--6--6--6--|
A|---2--2--2--2-----2--2--2--2-----4--4--4--4----4--4--4--4--|
E|-----------------------------------------------------------|

packed and i've said my goodbyes, constantly 
e|-----------------------------------------------------------|
B|-----------------------------------------------------------|
G|---4--4--4--4-----4--4--4--4-----4--4--4--4----4--4--4--4--|
D|---2--2--2--2-----2--2--2--2-----2--2--2--2----2--2--2--2--|
A|---0--0--0--0-----0--0--0--0-----0--0--0--0----0--0--0--0--|
E|-----------------------------------------------------------|

giving into       these     moments that just bring me  
e|-----------------------------------------------------------|
B|---7--7--7--7----------------------------------------------|
G|---8--8--8--8--------------9--9--9--9----------------------|
D|---x--x--x--x--------------9--9--9--9----------------------|
A|---7--7--7--7--------------x--x--x--x----------------------|
E|---------------------------9--9--9--9----------------------|

down, just bring to me close enough to stay a-
e|-----------------------------------------------------------|
B|-----------------------------------------------------------|
G|---4--4--4--4-----4--4--4--4-----4--4--4--4----4--4--4--4--|
D|---2--2--2--2-----2--2--2--2-----2--2--2--2----2--2--2--2--|
A|---0--0--0--0-----0--0--0--0-----0--0--0--0----0--0--0--0--|
E|-----------------------------------------------------------|

round..                                             to stay around 
e|----------------------------------------------------------------|
B|----------------------------------------------------------------|
G|---4--4--4--4-----4--4--4--4-----6--6--6--6----6--6--4--6----4--|
D|---4--4--4--4-----4--4--4--4-----6--6--6--6----6--6--6--6----2--|
A|---2--2--2--2-----2--2--2--2-----4--4--4--4----4--4--4--4----0--|
E|----------------------------------------------------------------|

but I won't stay around 
e|-------------------------------|
B|-------------------------------|
G|----------------4--------------|
D|----------------2--------------|
A|----------------0--------------|
E|-------------------------------|
            
Submit corrections

comments powered by Disqus
↑ Back to top | The Scene Aesthetic Tabs for Alvin Maker's Greensong. Lyrics for acoustic guitar and electric guitar. Tablatures and chords are parodies/interpretations of the original songs. You may use it for private study, scholarship, research or language learning purposes only