» » »

The Rakes, The World Was A Mess But His Hair Was Tabs (ver.2)

Artists:  A B C D E F G H I J K L M N O P Q R S T U V W X Y Z # 

The World Was A Mess But His Hair Was Tabs (ver.2)

The Rakes Tabs
 Rating:
4/5 (4 votes)
The World Was A Mess But His Hair Was lessons Tabs too difficult? Try these video lessons and learn fast
1
                (Perfect)
Yes I realize theres a tab for this song already, but I wrote this before I saw that 
There's also differences between both.


e|---------------------------------------------------------------------------|
B|--------99-12---------------------------9-------------------9--------------|
G|-99------------9--9------------99-1111---------99-1111---------------------|
D|----1111------------(x4)--1111-----------11-11-----------11-11-------------|
A|---------------------------------------------------------------------------|
E|---------------------------------------------------------------------------|

e|---------------------------------------------------------------------------|
B|-------------9-1212-99-----------------------------------------------------|
G|-99-1111--------------1111-9-----------------------------------------------|
D|---------------------------------------------------------------------------|
A|---------------------------------------------------------------------------|
E|---------------------------------------------------------------------------|

During this the bassline is:

e|---------------------------------------------------------------------------|
B|---------------------------------------------------------------------------|
G|---------------------------------------------------------------------------|
D|---------------------------------------------------------------------------|
A|-777777777-5--(x4)--444444444-2--(x4)--------------------------------------|
E|---------------------------------------------------------------------------|

I can't really make out what's going on in the rest of the song, but the bass is just E 
C#, so for guitar play E and C#m.

Bridge:

e|---------------------------------------------------------------------------|
B|---------------------------------------------------------------------------|
G|---------------------------------------------------------------------------|
D|---16161616--14141414--11111111--------------------------------------------|
A|---14141414--12121212--9-9-9-9---------------------------------------------|
E|---------------------------------------------------------------------------|

In the distance you can hear these random guitar screeches and some tremolo on notes, 
fool around on the high e string til you feel something sounds right. I can't really 
it so I can't recreate it. Sorry.
            
Submit corrections

comments powered by Disqus
↑ Back to top | The Rakes Tabs for The World Was A Mess But His Hair Was. Lyrics for acoustic guitar and electric guitar. 1 Tablatures and chords are parodies/interpretations of the original songs. You may use it for private study, scholarship, research or language learning purposes only