» » »

The Rakes, The World Was A Mess But His Hair Was Tabs (ver.1)

Artists:  A B C D E F G H I J K L M N O P Q R S T U V W X Y Z # 

The World Was A Mess But His Hair Was Tabs (ver.1)

The Rakes Tabs
 Rating:
3.6/5 (7 votes)
The World Was A Mess But His Hair Was lessons Tabs too difficult? Try these video lessons and learn fast
                (Perfect)
intro
a---------------------------------------------|
E--(12-12-12-12-12-12-12-12-12--9-9-----------|- all played as harmonics


the main riff

e|---------------------------------------------|
B|-----------------------12--------------------|
G|----------------13-13------------------------| X 4 times
D|-14-14--11-11--------------14----------------|
A|---------------------------------------------|
E|---------------------------------------------|

followed by this

e|-------------------------------------|
B------------------------9-------------|
G|--------9-9---11-11------------------| x4 then on the 4th play the
D|----11---------------------11--------|  variation below
A|-------------------------------------|
E|-------------------------------------|

e|------------------------------------------------------------------|
B------------------------9----12-12--9-9----------------------------|
G|--------9-9---11-11---------------------11-11---9-9---------------|
D|----11---------------------------------------------------11-------|
A|------------------------------------------------------------------|
E|------------------------------------------------------------------|


It repeats throughout and then goes to a bridge, as seen below

e|-----------------------------------------------------------|
B|-----------------------------------------------------------|
G|-----------------------------------------------------------|
D|-----------------------------------------------------------|
A|----19-19-19-19----17-17-17-17--14-14-14-14----------------|
E|----19-19-19-19----17-17-17-17--14-14-14-14----------------|
            
Submit corrections

comments powered by Disqus
↑ Back to top | The Rakes Tabs for The World Was A Mess But His Hair Was. Lyrics for acoustic guitar and electric guitar. Tablatures and chords are parodies/interpretations of the original songs. You may use it for private study, scholarship, research or language learning purposes only