» » »

The Raconteurs, The Switch And The Spur Tabs (ver.1)

Artists:  A B C D E F G H I J K L M N O P Q R S T U V W X Y Z # 

The Switch And The Spur Tabs (ver.1)

The Raconteurs Tabs
Rating:
0/5 (0 votes)
The Switch And The Spur lessons Tabs too difficult? Try these video lessons and learn fast
                Tuning: standard

b - bend
tp - tremolo pick

Intro/Chorus
e|----------------------------------------------------|
B|----------------------------------------------------|
G|----------------------------------------------------|
D|--------5--7-4----3-5-3-2----1-3-1-0----------------| X2
A|----3-5--------5----------3----------1--3-----------|
E|--3---------------------------------------3-3-------|

Verse 1
Palm muted
e|------------------------------------------------------------------------------------|
B|------------------------------------------------------------------------------------|
G|------------------------------------------------------------------------------------|
D|------------------------------------------------------------------------------------|X2
A|-3-1-0------------------3-1-0------------------3-1-0-----------5--5-5--5-1-1-----3--|
E|-------3--3-3--3-1-0-1--------3--3-3--3-1-0-1--------3--3-3--3---------------1-1----|
  
Intro/Chorus X2
Verse 1 X2
Intro/Chorus X2

Verse 2
Palm muted
e|----------------------------------------------|
B|----------------------------------------------|
G|----------------------------------------------|
D|----------------------------------------------| X4
A|--------------5-5-5-5-5-5-1-1-1-0-0-0-3-3-3---|
E|--3-3-3-3-3-3---------------------------------|


Solo
 1 Octave up
e|----------------------------------------------------------------------------------------|
B|----------------------------------------------------------------------------------------|
G|----------------------15--------------15p14---12----------------------------------------|
D|----------------------15-------------------15----11b------------------------------------|
A|--13-15-15btp--13-15--15-15-15b-13-15----------------10h12-10h12p10-13p12h13-15-13-10---|
E|----------------------------16b---------------------------------------------------------|

e|--------------------------------------------18p15---------------------------------------------18-|
B|-11-13-11-13-15-13-11h13b--13b-13b-13-13-11------18---------------------15-18-15-----------------|
G|----------------------------------------------------17-17-15--17b-15-17----------17-15-17b-15----|
D|-------------------------------------------------------------------------------------------------|
A|-------------------------------------------------------------------------------------------------|
E|-------------------------------------------------------------------------------------------------|

Verse 2 X9

outro
e|----------------------------------|
B|----------------------------------|
G|----------------------------------|
D|--------5--7-5-4--- 3-5-3-2---5---| X3
A|----3-5----------5----------3-----|
E|--3-------------------------------|
            

comments powered by Disqus
↑ Back to top | The Raconteurs Tabs for The Switch And The Spur. Lyrics for acoustic guitar and electric guitar. Tablatures and chords are parodies/interpretations of the original songs. You may use it for private study, scholarship, research or language learning purposes only