» » »

The Raconteurs, Five On The Five Tabs (ver.1)

Artists:  A B C D E F G H I J K L M N O P Q R S T U V W X Y Z # 

Five On The Five Tabs (ver.1)

The Raconteurs Tabs
 Rating:
4.6/5 (11 votes)
Five On The Five lessons Tabs too difficult? Try these video lessons and learn fast
                Tuning:Standard
This was an already existing tab but it needed a few corrections to sound 100% correct.

PART A
e|---------------------------------------------------------------------------|
B|---------------------------------------------------------------------------|
G|--------7---6--6--5-----------7---6--6--5----------------------------------|
D|--------7---6--6--5--3--5-----7---6--6--5--3--5--3--5--X2------------------|
A|--------5---4--4--3--3--5-----5---4--4--3--3--5--3--5----------------------|
E|---------------------1--3------------------1--3--1--3----------------------|
PART B
e|---------------------------------------------------------------------------|
B|---------------------------------------------------------------------------|
G|---------------------------------------------------------------------------|
D|-------------------------------------------------------------------X2------|
A|-----5-5-5-5-4-4-4-4-3-3-3----------5-5-5-5-4-4-4-4-3-3-3------------------|
E|-----------------------------1--3---------------------------1-3-1-3--------|
PART C
e|---------------------------------------------------------------------------|
B|---------------------------------------------------------------------------|
G|------------------------3-3-3-3-3-3-3-3---------------------5--------------|
D|-----3-3-3-3-3-3-3-3----3-3-3-3-3-3-3-3---5-5-5-5-5-5-5-5---5--------------|
A|-----3-3-3-3-3-3-3-3----1-1-1-1-1-1-1-1---5-5-5-5-5-5-5-5---3--------------|
E|-----1-1-1-1-1-1-1-1----------------------3-3-3-3-3-3-3-3------------------|
                                            PART D
e|-----------------------------------------|---------------------------------|
B|-----------------------------------------|---------------------------------|
G|------------------------3-3-3-3-3-3-3-3--|-----5-----3------5-----3--------|
D|-----3-3-3-3-3-3-3-3----3-3-3-3-3-3-3-3--|--5--5--3--3---5--5--3--3--------|
A|-----3-3-3-3-3-3-3-3----1-1-1-1-1-1-1-1--|--5--3--3--1---5--3--3--1--------|
E|-----1-1-1-1-1-1-1-1---------------------|--3-----1------3-----1-----------|

Then it goes like this again:
PART A
PART B
PART C
PART D
Then it goes into the solo (If you could call it that).

e|-----6-----6---7-----7---8-----8--------------X6---------------------------|
B|--------8---------8---------8----------------------------------------------|
G|---------------------------------------------------------------------------|
D|---------------------------------------------------------------------------|
A|---------------------------------------------------------------------------|
E|---------------------------------------------------------------------------|
This is a bass part, but you could play it anyway.
e|---------------------------------------------------------------------------|
B|---------------------------------------------------------------------------|
G|---------------------------------------------------------------------------|
D|---------------------------------------------------------------------------|
A|---------------------------------------------------------------------------|
E|------7-7-7-7-6-6-6-6-5-5-5-0-2-2-2----X4----------------------------------|
The bass continues, but Jack White plays this with lots of effects:
e|---9~--8~--7~--6~--------X8------------------------------------------------|
B|---------------------------------------------------------------------------|
G|---------------------------------------------------------------------------|
D|---------------------------------------------------------------------------|
A|---------------------------------------------------------------------------|
E|---------------------------------------------------------------------------|
Then, it goes:
PART C
PART D
PART C
PART D
And then the final bit.
e|---------------------------------------------------------------------------|
B|---------------------------------------------------------------------------|
G|-----------------3--3---3-----------------5--5--5--5--5--5-----X5----------|
D|----3--3---3-----3--3---3-----5--5---5----5--5--5--5--5--5-----------------|
A|----3--3---3-----1--1---1-----5--5---5----3--3--3--3--3--3-----------------|
E|----1--1---1------------------3--3---3-------------------------------------|


| /  slide up
| \  slide down
| h  hammer-on
| p  pull-off
| ~  vibrato
| +  harmonic
| x  Mute note
===============================================================================
            
Submit corrections

comments powered by Disqus
↑ Back to top | The Raconteurs Tabs for Five On The Five. Lyrics for acoustic guitar and electric guitar. Tablatures and chords are parodies/interpretations of the original songs. You may use it for private study, scholarship, research or language learning purposes only