» » »

The Raconteurs, Blue Veins Tabs (ver.1)

Artists:  A B C D E F G H I J K L M N O P Q R S T U V W X Y Z # 

Blue Veins Tabs (ver.1)

The Raconteurs Tabs
 Rating:
4/5 (4 votes)
Blue Veins lessons Tabs too difficult? Try these video lessons and learn fast
                 ---------------------------------------
| Blue Veins                            |
| Broken Boy Soldiers                   |
| The Raconteurs                        |
| Written by Jack White/Brendan Benson  |               
 ---------------------------------------
 ----------------------
| CHORDS:   EADGBE     |
|           ------     |
| Am:       577555     |
| Dm:       X57765     |
| C:        X32010     |
| B7:       X21202     |
|                      |
| P:        Pull Off   |
| B:        Bend       |
 ----------------------

Intro:

 Amin X 4 (w/ tremelo effect)

e|-5-----------5---|
B|-5--10--10---5---|
G|-5---9--9----5---|
D|----10--10-------|
A|-----------------|
E|-----------------|


Verse:

           Dmin        Amin
e|------------5-----------5---|
B|------------6--5-5------5---|
G|----5-7-5---7------7-5--5---| play this phrase twice
D|—7----------7-----------7---|
A|------------5-----------7---|
E|------------------------5---|


When I was surrounded by the world
You were the only one who came
And you were the only one astounded
Which kept me grounded
As the other girls thrashed my very name


     Cmaj X 4      B7(arpeggio)
e|------0--0--0--0----------2---|
B|------1--1--1--1-----0----0---|
G|------0--0--0--0----2-2---2---|
D|------2--2--2--2---1---1--1---|
A|-0-2--3--3--3--3--2-------2---|
E|------------------------------|


Then I looked over
Just in time to see her smiling back at me
And saying everything's OK

 Amin
e|-5---5--5----5---|
B|-5---5---5---5---|
G|-5---5--- 5--5---|
D|-7---------------|
A|-7---------------|
E|-5---------------|


As long as you're inside my blue veins
Your blue veins

                               Dm
Yeah and the feeling that you gave me

No matter what I do or where I go
                 Am
It always will remain

       Dm
And those who would enslave me to get to me must get past you and will have no luck
                               Am
Cause you'll protect me from all pain
 C                     B7
The most beautiful, yeah the most beautiful thing cause anything else can't compare
                                               Amin
Must be the blood that's running through your blue vein

Your blue veins


???????????????? <------- backwards part


 Am
Your blue veins

                       Dm
And I know you won't deceive me
                                       Am
Like the rest and there's nothing you need to explain
                                 Dm
You always were the first one to believe me

When I said to you girl
                   Am
I think it's gonna rain

But I could be wrong

  C
Yeah but all of these things

All these things
                  B7
They're all truly nice but ain't nothing
                                                               Amin
Ain't nothing compared to the love that's running through your little blue veins

Your blue veins


End on Amin
            
Submit corrections

comments powered by Disqus
↑ Back to top | The Raconteurs Tabs for Blue Veins. Lyrics for acoustic guitar and electric guitar. Tablatures and chords are parodies/interpretations of the original songs. You may use it for private study, scholarship, research or language learning purposes only