>
 >
Bane Rendition

Bane Rendition Guitar Tabs

The Raconteurs - Bane Rendition chords, tabs, tablatures, lyrics

Guitar lessons | Add/correct | Request | Top 50 tabs Artists:  A B C D E F G H I J K L M N O P Q R S T U V W X Y Z 0-9

Bane Rendition Guitar Tabs – The Raconteurs

CD, Sheet music, Poster

Do you like Bane Rendition? Share with your friends now
Tabs

Tuning: Standard (tune very slightly up to play along with the track perfectly)

Sorry about the length of this one; there is a lot of variation in the song.
This is my first time tabbing two guitars (I think! :D), so sorry if it is a bit confusing!
Please don't complain about some bits being for keyboard, I did it that way so that you 
play along with 2 guitars.

Please rate and comment, and thanks for looking!

Legend at bottom.
_______________________________________________________________________________________________
Intro

Guitar 1
e|---------------------|
B|---------------------|
G|---------------------|
D|---------------------|
A|---------------------|
E|-6-6---6-6-6-6-6-4-4-| x1

Verse
Guitar 1
e|---------------------|
B|---------------------|
G|---------------------|
D|---------------------|
A|--H------------------|
E|-4-6---6-6-6-6-6-4-4-| x10

        
      Progressively Louder
e|---------------------|
B|---------------------|
G|---------------------|
D|---------------------|
A|--H------------------|
E|-4-6---6-6-6-6-6-6-6-| x1

Guitar 2 (with above)
e|---------------------|
B|---------------------|
G|---------------------|
D|-------8-8-8-8-8-8-8-|
A|---------------------|
E|---------------------| x1


Chorus

Guitars 1&2
e|---------------|
B|---------------|
G|-9-9-9-9-9-6-9-|
D|-9-9-9-9-9-6-9-|
A|-6-6-6-6-6-4-6-|
E|---------------| x1

Guitar 1

e|-------------|
B|-------------|
G|-------------|
D|-------------|
A|-6-9-11-9-6--|
E|-------------| x2

Guitar 2
  <----2nd time---------|
e|----------------------|
B|----------------------|
G|---6-8-6--------------|
D|-8-------8------------|
A|----------------------|
E|----------------------| x1

Guitar 1
e|---------------------|
B|---------------------|
G|---------------------|
D|---------------------|
A|--H------------------|
E|-4-6---6-6-6-6-6-4-4-| x1

              
         Progressively Louder
e|---------------------|
B|---------------------|
G|---------------------|
D|-------------8-8-8-8-|
A|--H----------8-8-8-8-|
E|-4-6---6-6-6-6-6-6-6-| x1

Guitar 2 (with above)
e|---------------------|
B|---------------------|
G|---------------------|
D|---------------------|
A|---------------------|
E|-------6-6-6-6-6-6-6-| x1

Guitars 1&2
e|---------------------|
B|---------------------|
G|-10-10-10-10-10-10-8-|
D|-10-10-10-10-10-10-8-|
A|-8--8--8--8--8--8--6-|
E|---------------------| x1

Guitar 1
e|-------------|
B|-------------|
G|-------------|
D|-------------|
A|-6-9-11-9-6--|
E|-------------| x2

Guitar 2
  <----2nd time---------|
e|----------------------|
B|----------------------|
G|---6-8-6--------------|
D|-8-------8------------|
A|----------------------|
E|----------------------| x1


Verse

Guitar 1
e|---------------------|
B|---------------------|
G|---------------------|
D|---------------------|
A|--H--------------4-4-|
E|-4-6---6-6-6-6-6-----| x1

e|-------------------|
B|-------------------|
G|-------------------|
D|-------------------|
A|--H----------------|
E|-4-6---6-6-6-6-6-6-| x1


Guitar 2
e|--------------------------|
B|-11-9---------------------|
G|------10-8-7--------------|
D|--------------------------|
A|--------------------------|
E|--------------------------| x1


Guitar 1
e|---------------------|
B|---------------------|
G|---------------------|
D|---------------------|
A|--H------------------|
E|-4-6---6-6-6-6-6-4-4-| (continued under guitar 2 until chorus)


Guitar 2
e|------|   e|--------------------|
B|------|   B|-11-9---------------|
G|-5/7--|   G|------10-8-7---5\3--|
D|------|   D|--------------------|
A|------|   A|--------------------|
E|------|   E|--------------------| x1

e|-------------------|   e|-------------------|
B|-11-9--------------|   B|-11-9--------------|
G|------10-8-7---5/7-|   G|------10-8-7---5\3-|
D|-------------------|   D|-------------------|
A|-------------------|   A|-------------------|
E|-------------------|   E|-------------------|

Guitar 1
              
         Progressively Louder
e|---------------------|
B|---------------------|
G|---------------------|
D|-------------8-8-8-8-|
A|--H----------8-8-8-8-|
E|-4-6---6-6-6-6-6-6-6-| x1

Chorus

Guitars 1&2
e|---------------|
B|---------------|
G|-9-9-9-9-9-6-9-|
D|-9-9-9-9-9-6-9-|
A|-6-6-6-6-6-4-6-|
E|---------------| x1

Guitar 1

e|-------------|
B|-------------|
G|-------------|
D|-------------|
A|-6-9-11-9-6--|
E|-------------| x2

Guitar 2
  <----2nd time---------|
e|----------------------|
B|----------------------|
G|---6-8-6--------------|
D|-8-------8------------|
A|----------------------|
E|----------------------| x1

Guitar 1
e|---------------------|
B|---------------------|
G|---------------------|
D|---------------------|
A|--H------------------|
E|-4-6---6-6-6-6-6-4-4-| x1

              
         Progressively Louder
e|---------------------|
B|---------------------|
G|---------------------|
D|-------------8-8-8-8-|
A|--H----------8-8-8-8-|
E|-4-6---6-6-6-6-6-6-6-| x1

Guitar 2 (with above)
e|-----------------------|
B|-----------------------|
G|-----------------------|
D|-----------------------|
A|---------------------0-|
E|-------6-6-6-6-6-6-6-0-| x1

Guitars 1&2
e|---------------------|
B|---------------------|
G|-10-10-10-10-10-10-8-|
D|-10-10-10-10-10-10-8-|
A|-8--8--8--8--8--8--6-|
E|---------------------| x1

Guitar 1
e|-------------|
B|-------------|
G|-------------|
D|-------------|
A|-6-9-11-9-6--|
E|-------------| x2

Guitar 2
  <----2nd time---------|
e|----------------------|
B|----------------------|
G|---6-8-6--------------|
D|-8-------8------------|
A|----------------------|
E|----------------------| x1


Verse

Guitar 1
e|---------------------|
B|---------------------|
G|---------------------|
D|---------------------|
A|--H------------------|
E|-4-6---6-6-6-6-6-4-4-| x1

e|---------------------|
B|---------------------|
G|---------------------|
D|---------------------|
A|--H------------------|
E|-4-6---6-6-6-6-6-6-6-| x1


Guitar 2
e|------------------------------------|
B|------------------------------------|
G|-8-7---8-10---12-10---12-13---12-15-|
D|-8-7---8-10---12-10---12-13---12-15-|
A|-6-5---6-8----10-8----10-11---10-13-|
E|------------------------------------| x1

e|----------------------------|
B|----------------------------|
G|-8-7---8-10---12-10---12-13-|
D|-8-7---8-10---12-10---12-13-|
A|-6-5---6-8----10-8----10-11-|
E|----------------------------| x1

Guitar 1
e|---------------------|
B|---------------------|
G|---------------------|
D|---------------------|
A|--H------------------|
E|-4-6---6-6-6-6-6-4-4-| x1 (continued under guitar 2)

Guitar 2
e|------------------------------------|
B|------------------------------------|
G|-8-7---8-10---12-10---12-13---12-15-|
D|-8-7---8-10---12-10---12-13---12-15-|
A|-6-5---6-8----10-8----10-11---10-13-|
E|------------------------------------| x3

e|-----------------------------------|
B|-----------------------------------|
G|-8-7---8-10---12-10---12-13---12---|
D|-8-7---8-10---12-10---12-13---12-8-|
A|-6-5---6-8----10-8----10-11---10-8-|
E|---------------------------------6-| x1

Guitar 1
e|---------------------|   e|-------------|
B|---------------------|   B|-------------|
G|---------------------|   G|-------------|
D|---------------------|   D|-------------|
A|--H------------------|   A|--H----------|
E|-4-6---6-6-6-6-6-4-4-|   E|-4-6---6-6-6-|

Guitar 2
e|--------------------------|
B|--------------------------|
G|--------------------------|
D|-----8------8------8----8-|
A|--------------------------|
E|-6-6----6-6----6-6----6---|

Guitars 1&2
e|---------------------|   e|-------------------------|
B|---------------------|   B|-------------------------|
G|---------------------|   G|-------------------------|
D|---------------------|   D|-------------------------|
A|--H--------------4-4-|   A|--H---------P------------|
E|-4-6---6-6-6-6-6-----|   E|-4-6---6-6-6-44-44-44-44-| x1

Guitar 1
e|---------------------|
B|---------------------|
G|---------------------|
D|---------------------|
A|--H------------------|
E|-4-6---6-6-6-6-6-4-4-| (continued under guitar 2)

Guitar 2
e|--6--|
B|--6--|
G|--6--|
D|--8--|
A|--8--|
E|--6--|

Guitar 1

       Progressively Louder
e|------------------------|
B|------------------------|
G|------------------------|
D|------------------------|
A|--H---------------------|
E|-4-6---6-6-6-4444-44444-| x1

Guitar 2 (with above)
e|------------P-----------|
B|----------11-9999-99999-|
G|------------------------|
D|------------------------|
A|------------------------|
E|------------------------| x1

Guitars 1&2
e|---------------|
B|---------------|
G|-9-9-9-9-9-6-9-|
D|-9-9-9-9-9-6-9-|
A|-6-6-6-6-6-4-6-|
E|---------------| x1

Guitar 1
e|-------------|
B|-------------|
G|-------------|
D|-------------|
A|-6-9-11-9-6--|
E|-------------| x2

Guitar 2
  <----2nd time---------|
e|----------------------|
B|----------------------|
G|---6-8-6--------------|
D|-8-------8------------|
A|----------------------|
E|----------------------| x1

Guitar 1
e|---------------------|   e|---------------------|
B|---------------------|   B|---------------------|
G|---------------------|   G|---------------------|
D|---------------------|   D|-------------------0-|
A|--H--------------6\5-|   A|--H----------------0-|
E|-4-6---6-6-6-6-6-----|   E|-4-6---6-6-6-6-6-----| x1

Guitars 1&2
e|------------------------------|
B|------------------------------|
G|-10-10-10-10-10-10-10-10-10\8-|
D|-10-10-10-10-10-10-10-10-10\8-|
A|-8--8--8--8--8--8--8--8--8-\6-|
E|------------------------------| x1

Guitar 1
e|-------------|
B|-------------|
G|-------------|
D|-------------|
A|-6-9-11-9-6--|
E|-------------| x2

Guitar 2
  <----2nd time---------|
e|----------------------|
B|----------------------|
G|---6-8-6--------------|
D|-8-------8------------|
A|----------------------|
E|----------------------| x1

Guitar 1
e|-------------------|
B|-------------------|
G|-------------------|
D|-----P-------------|
A|--4-6-4------------|
E|-6-----4-6~~-------| x1
__________________________________________________________________________________________________


LEGEND:

P= Pull off
H= Hammer-on
/= Slide up
\= Slide down
~= Vibrato





Comments


Popular The Raconteurs tabs & chords
Consoler Of The Lonely Bass Tabs
Blue Veins Chords
Carolina Drama 3 Chords
Broken Boy Soldier 1 Tabs
Intimate Secretary Live Tabs
Pull This Blanket Off Tabs
Rich Kid Blues Tabs
Salute Your Solution Tabs
Salute Your Solution 1 Tabs
Steady As She Goes 1 Tabs


Song lyrics



↑ Back to top | Tablatures and chords are parodies/interpretations of the original songs. You may use it for private study, scholarship, research or language learning purposes only
© 2014 AZChords.com Contact us | Privacy policy | DMCA | Add/correct tabs | Request tabs | Top 50 tabs