» » »

The Raconteurs, 5 On The 5 Tabs (ver.1)

Artists:  A B C D E F G H I J K L M N O P Q R S T U V W X Y Z # 

5 On The 5 Tabs (ver.1)

The Raconteurs Tabs
Rating:
0/5 (0 votes)
5 On The 5 lessons Tabs too difficult? Try these video lessons and learn fast
                ---------------------------------------
| Five On The Five                      |
| Live Performance                      |
| The Raconteurs                        |
| Written by Jack White/Brendan Benson  |
 ---------------------------------------
 ----------------------
| CHORDS:    EADGBE     |
|            ------     |
| C5:        x355xx     |
| C#5:       x466xx     |
| D5:        x577xx     |
| F5:        133xxx     |
| G5:        355xxx     |
 ----------------------

Intro & breaks:

     D5  C#5     C5   F5 G5
e-----------------------------------|
B-----------------------------------|
G---7-7-x-6-6-x-5-5-x---------------|
D---7-7-x-6-6-x-5-5-x-3/5-5-5-------|
A---5-5-x-4-4-x-3-3-x-3/5-5-5-------|
E---------------------1/3-3-3-------|


verse:

    D5    C#5    C5      F5 G5
e|-------------------------------------|
B|-------------------------------------|
G|-------------------------------------|
D|-------------------------------------|
A|--5-5-x-4-4-x-3-3-x------------------|
E|-----------------------1h3-3-3-------|

The decision that was left between you and me
And the division that was there it was hard to see
[...] with you in mind
And I'm scared of something: my baby's on the line

chorus:

         F5                 A#5 
I've got 5 on the 5, you better take your time
         G5             C5
Doing it all alone (o-oh, o-o-oh)
         F5               A#5                                G5 A5 F5 A#5 G5
If we keep it in line or ignore all the signs it keeps adding up

Now back to you

(Repeat)
            

comments powered by Disqus
↑ Back to top | The Raconteurs Tabs for 5 On The 5. Lyrics for acoustic guitar and electric guitar. Tablatures and chords are parodies/interpretations of the original songs. You may use it for private study, scholarship, research or language learning purposes only