» » »

The Pigeon Detectives, Wait For Me Tabs (ver.1)

Artists:  A B C D E F G H I J K L M N O P Q R S T U V W X Y Z # 

Wait For Me Tabs (ver.1)

The Pigeon Detectives Tabs
 Rating:
4.3/5 (6 votes)
Wait For Me lessons Tabs too difficult? Try these video lessons and learn fast
                e|----------------------------------------------|
B|--9---9---12--10---9--9---12--10--------------|
G|----9---9---9---9----9---9---9---9------------|
D|----------------------------------------------|
A|----------------------------------------------|
E|----------------------------------------------|


e|-x------4------------------------7-------9------5-----------|
B|-4------5-----2------------------7-------9------5-----------|
G|-4------6-----2------------------8-------9------6-----------|
D|-4------6-----2------------------9-------11-----7-----------|
A|-2------4------------------------9-------11-----7-----------|
E|-x------x------------------------7-------9------5-----------|

e|------------------------|---------------------|
B|------------------------|---------------------|
G|9-8---------------------|9-8------------------|
D|---9-11-9---------------|---9-11-9------------|
A|---------11-12-11-7-9-7-|---------11-12-11-9-7|
E|------------------------|---------------------|
            
Submit corrections

comments powered by Disqus
↑ Back to top | The Pigeon Detectives Tabs for Wait For Me. Lyrics for acoustic guitar and electric guitar. Tablatures and chords are parodies/interpretations of the original songs. You may use it for private study, scholarship, research or language learning purposes only