» » »

The Pigeon Detectives, Done In Secret Tabs (ver.2)

Artists:  A B C D E F G H I J K L M N O P Q R S T U V W X Y Z # 

Done In Secret Tabs (ver.2)

The Pigeon Detectives Tabs
 Rating:
4/5 (4 votes)
Done In Secret lessons Tabs too difficult? Try these video lessons and learn fast
                -------------------------------------------------------------------------------
                The Pigeon Detectives - Done in Secret - Up Guards and at 'Em
-------------------------------------------------------------------------------

Tuning: Standard

Hey, this is the first song ive transcribed so it may be a little bit off :)

Intro Main theme

e|---4---0---2---0---4---0---2---0---4------|
B|--------------------------------------2---|
G|------------------------------------------|     X2
D|------------------------------------------|
A|------------------------------------------|
E|------------------------------------------|

e|------------------------------------------|
B|---/9-9--7-7--5-5--7------7-7--5-5--7-7---|
G|---------------------6-6------------------|     X2
D|------------------------------------------|
A|------------------------------------------|
E|------------------------------------------|

Verse

Listen to the song to get the timing

e|---4-5-----------------4-5-7--5-4-0-------|
B|---5-5-----------------5-5-5--5-5-5-------|
G|------------------------------------------|     X1
D|------------------------------------------|
A|------------------------------------------|
E|------------------------------------------|

e|------------------------------------------|
B|---/9-9--7-7--5-5--7------7-7--5-5--7-7---|
G|---------------------6-6------------------|     X2
D|------------------------------------------|
A|------------------------------------------|
E|------------------------------------------|

Repeat above sections x2

Chorus Repeat x2

e-2-2-2-2-2-2-2-2-2-2-2-2-2-2-2-2-|
B-3-3-3-3-3-3-3-3-3-3-3-3-3-3-3-3-|
G-4-4-4-4-4-4-4-4-4-4-4-4-4-4-4-4-|
D-4-4-4-4-4-4-4-4-4-4-4-4-4-4-4-4-|
A-2-2-2-2-2-2-2-2-2-2-2-2-2-2-2-2-|
E---------------------------------|

You can put ,my back against the wall

e-2-2-2-2-2-2-2-2--9--9--9--9--9--9--9--9-|
B-3-3-3-3-3-3-3-3-10-10-10-10-10-10-10-10-|
G-2-2-2-2-2-2-2-2-11-11-11-11-11-11-11-11-|
D-0-0-0-0-0-0-0-0-11-11-11-11-11-11-11-11-|
A-----------------9--9--9--9--9--9--9--9--|
E-----------------------------------------|

You wont take me outside

e-----------------|
B-9-9-9-9-9-9-9-9-|
G-9-9-9-9-9-9-9-9-|
D-9-9-9-9-9-9-9-9-|
A-7-7-7-7-7-7-7-7-|
E-----------------|

What are you waiting for.

e-2-2-2-2-2-2-2-2-2-2-2-2-2-2-2-2-|
B-3-3-3-3-3-3-3-3-3-3-3-3-3-3-3-3-|
G-4-4-4-4-4-4-4-4-4-4-4-4-4-4-4-4-|
D-4-4-4-4-4-4-4-4-4-4-4-4-4-4-4-4-|
A-2-2-2-2-2-2-2-2-2-2-2-2-2-2-2-2-|
E---------------------------------|

Breakdown
(This is the synthy bit it)

e----------------9---|
B-10--12-------------|
G---------9--11----9-|

This is the guitar bit (Just after the synth)

e----------------9-9-9-9--|
B-10--12------------------|
G---------9--11-----------|

All these things were done in secret

e---------------------------------------------9-9-9-9-|
B-10-10-10-10-12-12-12-12-----------------------------|
G-------------------------9-9-9-9-11-11-11-11---------|
-

Breakdown

e-2-2-2-2-2-2-2-2--9--9--9--9--9--9--9--9-----------------|
B-3-3-3-3-3-3-3-3-10-10-10-10-10-10-10-10-9-9-9-9-9-9-9-9-|
G-2-2-2-2-2-2-2-2-11-11-11-11-11-11-11-11-9-9-9-9-9-9-9-9-|
D-0-0-0-0-0-0-0-0-11-11-11-11-11-11-11-11-9-9-9-9-9-9-9-9-|
A-----------------9--9--9--9--9--9--9--9--7-7-7-7-7-7-7-7-|
E---------------------------------------------------------|

You can put my    But you wont take me outside what are you waiting for.
Back aginst the
wall

************************************

| /   slide up
| \   slide down
| h   hammer-on
| p   pull-off
| ~   vibrato
| +   harmonic
| x   Mute note
| b   Bend
| pb  Pre-bend
| br  Bend release
| pbr Pre-bend release
| brb Bend release bend

************************************
            
Submit corrections

comments powered by Disqus
↑ Back to top | The Pigeon Detectives Tabs for Done In Secret. Lyrics for acoustic guitar and electric guitar. Tablatures and chords are parodies/interpretations of the original songs. You may use it for private study, scholarship, research or language learning purposes only