» » »

Taxi Cab Tabs (ver.1)

Artists:  A B C D E F G H I J K L M N O P Q R S T U V W X Y Z # 

Taxi Cab Tabs (ver.1)

The Naked Brothers Band
Rating:
3/5 (3 votes)

Hard to play? Try these video lessons and learn fast.
                im a girl not a guy, so dont comment saying thanks man.lol

e|----------------------------------------------------------------------|
B|----------------------------------------------------------2-----------|
G|---------------------2-----------------2------------------2-----------|
D|----2----------------2-----------------2------------------2-----------|
A|----2-----hold-------2-----hold--------0------hold--------0-----holddd|
E|----0----------------0------------------------------------------------|
(Intro)
strum 1:T-t-taxi cab!!
strum 2:T-t-taxi cab!!
strum 3:T-t-taxi cab!!
strum 4:T-t-taxi caaaaaaaaaaaabbbbbbb!!

             (strum this part)
e-------------------------------------------------------|
B-------------------------------------------------------|
G------7------------------------------------------------|
D------7------------------------------------------------|
A------5------------------------------------------------|
E-------------------------------------------------------|
 When your walking around and your late
The buses are packed
And the subways you hate
you need a...

             (strum this part)
e-------------------------------------------------------|
B-------------------------------------------------------|
G------9---------12--------14---------------------------|
D------9---------12--------14---------------------------|
A------7---------10--------12---------------------------|
E-------------------------------------------------------|
 taxi cab
 you need a taxi cab
             (strum this part)
e-------------------------------------------------------|
B-------------------------------------------------------|
G------7------------------------------------------------|
D------7------------------------------------------------|
A------5------------------------------------------------|
E-------------------------------------------------------|
 When you should of been there an hour ago
 When you don't have the time and your feeling low
 You call a...

             (strum this part)
e-------------------------------------------------------|
B-------------------------------------------------------|
G------9---------12--------14---------------------------|
D------9---------12--------14---------------------------|
A------7---------10--------12---------------------------|
E-------------------------------------------------------|
 taxi cab
 you need a taxi cab

Chorus:
(strum this part) play this 2 times
e-------------------------------------------------------|
B-------------------------------------------------------|
G------9---------12--------14---------------------------|
D------9---------12--------14---------------------------|
A------7---------10--------12---------------------------|
E-------------------------------------------------------|
 Ooo yah ohoh-ayy
 Ooo yah ohoh-ayy

Then go back to the intro.then there is a solo, i dont know the solo. And then go back 
the verse, then the chorus, and then back to the intro. and the song is finished.please comment
            
Hard to play? Try these video lessons and learn fast. | Correct




comments powered by Disqus
↑ Back to top | Tablatures and chords are parodies/interpretations of the original songs. You may use it for private study, scholarship, research or language learning purposes only