» » »

The Naked Brothers Band, Taxi Cab Tabs (ver.2)

Artists:  A B C D E F G H I J K L M N O P Q R S T U V W X Y Z # 

Taxi Cab Tabs (ver.2)

The Naked Brothers Band Tabs
 Rating:
3.7/5 (6 votes)
Taxi Cab lessons Tabs too difficult? Try these video lessons and learn fast
1
                                                                Band: Naked Brothers Band
---2-2-2-2-2-2---3-3-3-3-3-3--2-2-2-2-2---3-3-3-3-3-3--------|     Song: Taxi Cab
---3-3-3-3-3-3---3-3-3-3-3-3--3-3-3-3-3---3-3-3-3-3-3--------|      Intro
---2-2-2-2-2-2---2-2-2-2-2-2--2-2-2-2-2---2-2-2-2-2-2--------|
-------------------------------------------------------------|
-------------------------------------------------------------|   -= Strings
-------------------------------------------------------------|   ~=Let It Ring

                                                       Tuning: Standard

------------------------------------------------------|
------------------------------------------------------|
------------------------------------------------------|
-2-2-2-2-2---5-5-5-5-5-5---7-7-7-7-7-7----------------|
-2-2-2-2-2---5-5-5-5-5-5---7-7-7-7-7-7----------------|
-0-0-0-0-0---3-3-3-3-3-3---5-5-5-5-5-5----------------|


---2-2-2-2-2-2---3-3-3-3-3-3---2-2-2-2-2-2---3-3-3-3-3-|
---3-3-3-3-3-3---3-3-3-3-3-3---3-3-3-3-3-3---3-3-3-3-3-|
---2-2-2-2-2-2---2-2-2-2-2-2---2-2-2-2-2-2---2-2-2-2-2-|
-------------------------------------------------------|
-------------------------------------------------------|
-------------------------------------------------------|


-------------------------------------------------------|
-------------------------------------------------------|
-------------------------------------------------------|
-2-2-2-2-----5-5-5-5-5-5-5---7-7-7-7-7-7-7-7-----------|
-2-2-2-2-----5-5-5-5-5-5-5---7-7-7-7-7-7-7-7-----------|
-0-0-0-0-----3-3-3-3-3-3-3---5-5-5-5-5-5-5-5-----------|


-------------------------------------------------------|
-------------------------------------------------------|
-------------------------------------------------------|
-2-2-2-2-----5-5-5-5-5-5-5---7-7-7-7-7-7-7-7-----------|
-2-2-2-2-----5-5-5-5-5-5-5---7-7-7-7-7-7-7-7-----------|
-0-0-0-0-----3-3-3-3-3-3-3---5-5-5-5-5-5-5-5-----------|

-------------------------------------------------------|
-------------------------------------------------------|
-------------------------------------------------------|
-2-2-2-2-----5-5-5-5-5-5-5---7-7-7-7-7-7-7-7-----------|
-2-2-2-2-----5-5-5-5-5-5-5---7-7-7-7-7-7-7-7-----------|
-0-0-0-0-----3-3-3-3-3-3-3---5-5-5-5-5-5-5-5-----------|


-----------------------------------------------------|
-----------------------------------------------------|
-----------------------------------------------------|
-2~~~~~~~~~~~2~~~~~~~~~~~~7~~~~~~~~~~~~~7~~~~~~~~~~~~
-2~~~~~~~~~~~2~~~~~~~~~~~~7~~~~~~~~~~~~~7~~~~~~~~~~~~
-0~~~~~~~~~~~0~~~~~~~~~~~~5~~~~~~~~~~~~~5~~~~~~~~~~~~


 I don't Know The Ending But Rate And Comment.
            
Submit corrections

comments powered by Disqus
↑ Back to top | The Naked Brothers Band Tabs for Taxi Cab. Lyrics for acoustic guitar and electric guitar. 1 Tablatures and chords are parodies/interpretations of the original songs. You may use it for private study, scholarship, research or language learning purposes only