» » »

Theme Songs, Zelda Tabs (ver.1)

Artists:  A B C D E F G H I J K L M N O P Q R S T U V W X Y Z # 

Zelda Tabs (ver.1)

Theme Songs Tabs
 Rating:
4/5 (4 votes)
Zelda lessons Tabs too difficult? Try these video lessons and learn fast
                (Theme)
Yngwie Malmsteen supposedly did a cover of this song
but i wasnt sure if it was actually him so i just put
it under theme songs :D

oh yeah, and this is right... trust me. too bad it's only one guitar though :(

standard tuning. full distortion. just let it wail baby

--6-----6--2h4p2----6-----6--3h5p3--
----6-6---------------7-7-----------
------------------------------------
------------------------------------
------------------------------------
------------------------------------

-------------------------------------------------------
-------------------------------------------------------
-------------------------------------------------------
--3-3---3-3---3-3---3---3---3-3---3-3---3-3---3---3----
------1-----1-----1---1---1-----1-----1-----1---1---1--
-------------------------------------------------------

--6---6-6-8-10-11-13--
----6-----------------
---------------------- x3
----------------------
----------------------
----------------------

--13-13-14-16-18---18-18-16-14-16-14-13--13-11-11-11-14--13-11-9-9-9-13

--11-9-8-8-8-12----15-13------------------------------------
------------------------------------------------------------
------------------------------------------------------------
--------------------------15-15-15--15-15-15--15-15-15--15--
------------------------------------------------------------
------------------------------------------------------------

--6---6-6-8-10-11-13---13-14-16-18---21-20-----13-14--18-17-----
----6--------------------------------------21---------------18--

--13-14--18-17------10-11---14-13------6-8-10-10-12--15-13------------
---------------18-----------------14----------------------------------
------------------------------------------------------------15-15-15--
            
Submit corrections

comments powered by Disqus
↑ Back to top | Theme Songs Tabs for Zelda. Lyrics for acoustic guitar and electric guitar. Tablatures and chords are parodies/interpretations of the original songs. You may use it for private study, scholarship, research or language learning purposes only