» » »

X - Files Bass tabs (ver.1)

Artists:  A B C D E F G H I J K L M N O P Q R S T U V W X Y Z # 

X - Files Bass tabs (ver.1)

Theme Songs
Rating:
0/5 (0 votes)

Hard to play? Try these video lessons and learn fast.
                X-Files Theme 

background riff for the whole thing.. 
G|-------------------------------------------------------5--| 
D|-------5-6-5---6-5---6-5---5-------5-6-5---6-5---6-5------| 
A|-----5-------5-----5-----5-------5-------5-----5-----5----| 
E|---7---------------------------7--------------------------| 

the cool eerie sounding part 
G|--------------0---------------------2-----| 
D|-----2--0--2-----2---------2--0--2-----2--| 
A|--0--------------------0------------------| 
E|------------------------------------------| 


G|--5--4--2--0--4-------5--4--2--0--2-----| 
D|-----------------2-------------------2--| 
A|----------------------------------------| 
E|----------------------------------------|
            
Hard to play? Try these video lessons and learn fast. | Correct




comments powered by Disqus
↑ Back to top | Tablatures and chords are parodies/interpretations of the original songs. You may use it for private study, scholarship, research or language learning purposes only