» » »

Viva La Bam Bass tabs (ver.1)

Artists:  A B C D E F G H I J K L M N O P Q R S T U V W X Y Z # 

Viva La Bam Bass tabs (ver.1)

Theme Songs
Rating:
0/5 (0 votes)

Hard to play? Try these video lessons and learn fast.
                (Intro)
you play when the actual music starts to play

g---------------------------------
d---------------------------------   2x
a----------------------------3p5--
e--0-0-3-0---0-3-0--0-3-0-3p5-----
pause for:  "I'm gonna give you what you need!"

g---------------------------------
d---------------------------------
a----------------------------3p5--
e--0-0-3-0---0-3-0--0-3-0-3p5-----

pause for:  "I'm gonna make your ears bleed!"
g---------------------------------
d---------------------------------
a----------------------------3p5--
e--0-0-3-0---0-3-0--0-3-0-3p5-----

pause for:  "I'm gonna give you what you want!"

g---------------------------------
d---------------------------------
a----------------------------3p5--
e--0-0-3-0---0-3-0--0-3-0-3p5-----

pause for:  "Chickabody chickabody chickawitashow"

g---------------------------------
d---------------------------------
a----------------------------3p5--
e--0-0-3-0---0-3-0--0-3-0-3p5-----

g-----------------------------------------------------------------
d-----------------------------------------------------------------
a-----------------------------------------------------------------
e-5-5-5-5-5-5-5-5-5-5-5-5-5-5-5-5-3-3-3-3-3-3-3-3-3-3-3-3-3-3-3-3-  "rock and roll, rock and roll!    I'm the king of rock and roll."
g------------------------------
d------------------------------  this is during the guitar solo.
a------------------------------  listen to the song and you'll know
e-0--------0--------0--------0-  when to play it
g-----------------------------------------------------------------
d-----------------------------------------------------------------
a-----------------------------------------------------------------
e-5-5-5-5-5-5-5-5-5-5-5-5-5-5-5-5-3-3-3-3-3-3-3-3-3-3-3-3-3-3-3-3-

end on
g---
d---
a---
e-0-

  i am about 95% positive this tab is correct, so do whatever with.

  i didnt know what he says on the one part of the verse so i eared the
  best i could.
            
Hard to play? Try these video lessons and learn fast. | Correct




comments powered by Disqus
↑ Back to top | Tablatures and chords are parodies/interpretations of the original songs. You may use it for private study, scholarship, research or language learning purposes only