» » »

Veggie Tales Tabs (ver.1)

Artists:  A B C D E F G H I J K L M N O P Q R S T U V W X Y Z # 

Veggie Tales Tabs (ver.1)

Theme Songs
Rating:
0/5 (0 votes)

Hard to play? Try these video lessons and learn fast.
                This one is really easy my 13 year old sister can play this and she really sucks at guitar so if she can play it so can you. At first some one told me it was a country song and I believed it up until I played it for a friend and he started singing the veggie tales song so yah go figure. 

E|--------------------------------|---------------------------------|
B|--------------------------------|---------------------------------|
G|--------------------------------|---------------------------------|
D|--------------------------------|---------------------------------|
A|--3----3----3----3----0---2--|--3----3----3----3----0-2-----|
E|-----3----3----3----3---------|-----3----3----3----3-----------|

E|--------------------------------|---------------------------------|
B|--------------------------------|---------------------------------|
G|--------------------------------|---------------------------------|
D|--------------------------------|---------------------------------|
A|--3----3----3----3----0---2--|--3----3----3----3----0-2-----|
E|-----3----3----3----3---------|-----3----3----3----3-----------|

E|--------------------------------|---------------------------------|
B|--------------------------------|---------------------------------|
G|--------------------------------|---------------------------------|
D|--------------------------------|---------------------------------|
A|--3----3----3----3----0---2--|--3----3----3----3----0-2-----|
E|-----3----3----3----3---------|-----3----3----3----3-----------|

E|--------------------------------|---------------------------------|
B|--------------------------------|---------------------------------|
G|--------------------------------|---------------------------------|
D|--------------------------------|---------------------------------|
A|--3----3----3----3----0---2--|--3----3----3----3----0-2-----|
E|-----3----3----3----3---------|-----3----3----3----3-----------|
            
Hard to play? Try these video lessons and learn fast. | Correct




comments powered by Disqus
↑ Back to top | Tablatures and chords are parodies/interpretations of the original songs. You may use it for private study, scholarship, research or language learning purposes only