>
 >
Upa Upa Upapa

Upa Upa Upapa Guitar Tabs

Theme Songs - Upa Upa Upapa chords, tabs, tablatures, lyrics

Guitar lessons | Add/correct | Request | Top 50 tabs Artists:  A B C D E F G H I J K L M N O P Q R S T U V W X Y Z 0-9

Upa Upa Upapa Guitar Tabs – Theme Songs

CD, Sheet music, Poster

Do you like Upa Upa Upapa? Share with your friends now
Tabs
----12-12-12-12-12-12-10-9-10-12-13--------17-15-13-
B----------------------------------------------------
G----------------------------------------------------
D----------------------------------------------------
A----------------------------------------------------
E----------------------------------------------------

e----10-10-10-10-10-10-8-7-8-10-12----------15-13-12-
B----------------------------------------------------
G----------------------------------------------------
D----------------------------------------------------
A----------------------------------------------------
E----------------------------------------------------

e----8-8-8-8-8-8-5--5-7-8-10-------------------------
B----------------------------------------------------
G----------------------------------------------------
D----------------------------------------------------
A----------------------------------------------------
E----------------------------------------------------

e----7-7-7-7-7-7-7--5-4-5-7-8------------------------
B----------------------------------------------------
G----------------------------------------------------
D----------------------------------------------------
A----------------------------------------------------
E----------------------------------------------------





Comments


Popular Theme Songs tabs & chords
Aus National Anthem Bass Tabs
Deck The Halls Bass Tabs
Happy Birthday To You Bass Tabs
Imperial March Bass Tabs
Jeopardy Theme 1 Bass Tabs
Mary Had A Little Lamb Bass Tabs
Ode To Joy Bass Tabs
Popeye 2 Bass Tabs
Angel Tabs
Cow And Chicken Tabs


Song lyrics



↑ Back to top | Tablatures and chords are parodies/interpretations of the original songs. You may use it for private study, scholarship, research or language learning purposes only
© 2014 AZChords.com Contact us | Privacy policy | DMCA | Add/correct tabs | Request tabs | Top 50 tabs