» » »

Twinkle Twinkel Little Star Tabs (ver.1)

Artists:  A B C D E F G H I J K L M N O P Q R S T U V W X Y Z # 

Twinkle Twinkel Little Star Tabs (ver.1)

Theme Songs
Rating:
0/5 (0 votes)

Hard to play? Try these video lessons and learn fast.
                This is really easy and its 100% right 


E|-------------0-0-------------------------------------------
B|--------3-3------3--1-1-0-0--------------------------------
G|---0-0----------------------2-2-0--------------------------
D|-----------------------------------------------------------
A|-----------------------------------------------------------
E|-----------------------------------------------------------

E|-----------------------------------------------------------
B|---3-3--1-1--0-0-------------------------------------------
G|-------------------2---------------------------------------  X2
D|-----------------------------------------------------------
A|-----------------------------------------------------------
E|-----------------------------------------------------------

E|-------------0-0-------------------------------------------
B|--------3-3------3--1-1-0-0--------------------------------
G|---0-0----------------------2-2-0--------------------------
D|-----------------------------------------------------------
A|-----------------------------------------------------------
E|-----------------------------------------------------------
            
Hard to play? Try these video lessons and learn fast. | Correct




comments powered by Disqus
↑ Back to top | Tablatures and chords are parodies/interpretations of the original songs. You may use it for private study, scholarship, research or language learning purposes only