>
 >
Toejam And Earl

Toejam And Earl Guitar Tabs

Theme Songs - Toejam And Earl chords, tabs, tablatures, lyrics

Guitar lessons | Add/correct | Request | Top 50 tabs Artists:  A B C D E F G H I J K L M N O P Q R S T U V W X Y Z 0-9

Toejam And Earl Guitar Tabs – Theme Songs

CD, Sheet music, Poster

Do you like Toejam And Earl? Share with your friends now
Tabs
TOEJAM AND EARL THEME SONG by RockNAlmonds

funky song, great game. i dunno who wrote this but props to them!!

E[ ---------------------------  --------------------------------
B[ ---------------------------  --------------------------------
G[ ---------------------------  --------------------------------
D[ ----3-5--3---3-2-3-5-------  --------------------------------
A[ --5------------------------  --------------------------------
E[ 3--------------------------  1-0-1--1-0-1-0-1-0-1-3----------
     * *            (palm mute=*)
	repeat first measure then play

E[ ------------------------------- 
B[ ------------------------------- 
G[ ------------------------------- 
D[ 8-8-7--5---3-2-3-2--5-5 -------
A[ ------------------------------- 
E[ -------------------------------- 

	repeat that whole thing (4 measures)

BRIDGE PART ONE:

E[ ------------------------------------------------------- 
B[ ------------------------------------------------------- 
G[ ------------------------------------------------------- 
D[ ------------------------------------------------------- 
A[ -------------0-1-2-3--3--3>5---5--5-3-1----------------
E[ 3--1--3-3--------------------------------------1--3----   
repeat over and over until "solo" is done

"SOLO" (nothing better to call it...)

E[ --------------------------------------------------------   
B[ --------------------------------------------------------   
G[ -------------------------------------------5--5-3-------   
D[ -5-3-0-3-0----------------------------------------5-3--5   
A[ -------------3-5-3-1------1-2-3--3--3-3>5---------------   
E[ ---------------------3--3-------------------------------   

----------------------------------------------------
----------------------------------------------------
---3-4-5--3-5-3----------------7-------5---
5----------------5--5-3--3--3>5-5---5<3----5
-----------------------------------------------------
----------------------------------------------------

E[---------------------------   -----------------------------
B[---------------------------   -----------------------------
G[-5-7-5-3-0--5-5b--3-0------   -----------------------------
D[---------------------------   -3--3--3-5-----------------
A[--------------------------    --------------5-5--4--3---1
E[---------------------------   ----------------------------- 
THEN BACK TO BEGINNING OR END





Comments


Popular Theme Songs tabs & chords
Aus National Anthem Bass Tabs
Dawson's Creek Theme Bass Tabs
English National Anthem Bass Tabs
Jingle Bells 1 Bass Tabs
Star Wars: Imperial March Bass Tabs
Titanic Bass Tabs
Twilight Zone 1 Bass Tabs
Twinkle Twinkle Little Star 1 Bass Tabs
Blues Brothers Tabs
S.W.A.T. Tabs


Song lyrics



↑ Back to top | Tablatures and chords are parodies/interpretations of the original songs. You may use it for private study, scholarship, research or language learning purposes only
© 2014 AZChords.com Contact us | Privacy policy | DMCA | Add/correct tabs | Request tabs | Top 50 tabs