» » »

Titanic Theme Song Tabs (ver.1)

Artists:  A B C D E F G H I J K L M N O P Q R S T U V W X Y Z # 

Titanic Theme Song Tabs (ver.1)

Theme Songs
Rating:
0/5 (0 votes)

Hard to play? Try these video lessons and learn fast.
                Celine Dion - My Heart Will Go On(Titanic Theme)


This song is quite simple to play if you know of course the melody and the rythm.I'll
try to be as clear as possible so that you won't be stuck while playing the song.The only
problem is that I'll show you how to play it in a diferent tuning.My guitar is tuned in D
(that's droping the whole guitar 1 whole step),so *YOU* make the necessary modifications!!!
You can also put in wherever you feel necessary some according bends,pull-offs,hammer-ons, slides,releases...slurs in a word.

D|--------------------|--------------------|--------------------|-----------------|
A|-----8-8^^^8--------|-----8-8^^^8--------|-----8-8^^^8--------|-----8-8^^^8--7--|
F|---7---------7------|---7---------7------|---7---------7------|---7-------------| 
C|-5---------------5--|-5---------------5--|-5---------------5--|-5---------------|  
G|--------------------|--------------------|--------------------|-----------------|   
D|--------------------|--------------------|--------------------|-----------------|    
  1/8...........  1/4  1/8...........  1/4  1/8...........  1/4  1/8.....  1/4.....                                                                       
D|--------------------|--------------------|--------------------|-----------------|       
A|-----8-8^^^8--------|-----8-8^^^8-----10-|-----8-8^^^8--------|-----8-8^^^8-----|   
F|---7---------7------|---7---------7------|---7---------7------|---7-------------|   
C|-5---------------5--|-5------------------|-5---------------5--|-5------------4--| 
G|--------------------|--------------------|--------------------|-----------------|
D|--------------------|--------------------|--------------------|-----------------|
  1/8...........  1/4  1/8...........  1/4  1/8...........  1/4  1/8.....  1/4.....

D|------------------------------------------------------|
A|-*----------------------------------------------------|
F|------------------------------------------------------|
C|----5---5----5----5--4----5----5----4----5--7---9---7-|
G|-*---------------------------------------7--7---5---5-|
D|------------------------------------------------------|
      E--vry night in my  dreams I   see  you I feel you
    Love can touch us one time   and last for a life time                      

D|-----------------------------------------|------------------------|
A|-----------------------------------------|---------------------7--|
F|-----------------------------------------|---------------5-7-9----|
C|---5---5--5--5---4----5---------5--------|----------5-------------|
G|--------------------------------------5^^|----4-5-7---------------|
D|-----------------------------------------|------------------------|
   that is how I  know you       go    on.  1/8......................
   and     nev-er let  go till  we're gone.

D|----------------------------------------------------------|
A|---8^^^^^^^^^^^^^^----------------------------------------|
F|----------------------------------------------------------|
C|---5--5-----5----5----4-----5----5---4----5----7---9----7-|
G|------------------------------------------7----7---5----5-|
D|----------------------------------------------------------|
    Far a---cross the  dis--tance and spa--ces  be-tween us
   Love was  when  I  loved  you  one true time  I hold  to.

D|---------------------------------------|------------------------|
A|---------------------------------------|------------------------|
F|---------------------------------------|------------------------|
C|-5----5----5------5-----4----5---5-----|------------------4-----|
G|------------------------------------5^^|-----7-------7----------|
D|---------------------------------------|------------------------|
   you have come   to   show  you go on.  1/2..... 1/4.............
   In   my  life we'll   al--ways go on 

D|--------------------------------------------------------------------|--------------|
A|--------------------------------------------------------------------|--------------|
F|-----------------7--5-----------------------------------------------|--------------|
C|---5----7--------------9--7--9-10---9----7---5----4-----5---4--2^^^-|--------------|
G|--------9----5---7--7^^^--9^^^^^^--10^^^^^^^^^----------------------|-----5----4---|
D|--------------------------------------------------------------------|--------------|
    Near far wher-ev-er we are I be-live that the heart does go on.    1/2............
                                               
D|--------------------------------------------------------------------------------------------|
A|------------------------------------------------------------------------------------------*-|
F|--------------7--5-------------------------------------------------------------4--2---------|  
C|--5---7--------------9----7---9----10-----9---7--5---4----5---4---4----5----7--4--4---5^^^--|  G|------9----5--7--7^^^^----9^^^^^^^^^^----10----------------------------7----7--5--5-------*-|  D|--------------------------------------------------------------------------------------------|    Once more you o-pen the door and you're here in my heart and my heart will go on and on


I'm not that sure if it is
   ....-4-......-4-....
   ....-4-..or..-4-....
   ....-5-......-2-....----->up there;Anyway...play the *.......* twice.The second time will be followed by this:

D|----------|--------------------|--------------------|-----------------|
A|-8--------|-----8-8^^^8--------|-----8-8^^^8--------|-----8-8^^^8--7--|
F|---7------|---7---------7------|---7---------7------|---7-------------|
C|-------5--|-5---------------5--|-5---------------5--|-5---------------|
G|----------|--------------------|--------------------|-----------------|
D|----------|--------------------|--------------------|-----------------|
  1/8.  1/4  1/8...........  1/4  1/8...........  1/4  1/8...... 1/4.....

D|------------|-------------|--------------|----------|
A|-8----------|-------------|--------------|----------|
F|------------|-------------|---9----------|----------|
C|-9----7--5--|-12---9--12--|---5-----4----|---5--7---|
G|------------|--9----------|--------------|----------|
D|------------|-------------|--------------|----------|
  1/2  1/4..   1/2  1/4...   1/2+1/4 1/4    1/2....

D|----------------------------------------------------------------------------|-------------|
A|----------------------7---5-------------------------------------------------|-------------|
F|----------6-------------------8---6---8--9---8----6-------------------------|-------------|
C|----9-----7-----4-----5---5^^^^---7^^^^^^^---9--------9---7-----9---7--5^^^-|----4---2----|
G|----------------------------------------------------------------------------|-------------|
D|----------------------------------------------------------------------------|-------------|
   You're here there's no-thing I fear and I know that my heart will go on.    1/2...........

D|------------------------------------------------------------------------------------------|
A|-----------------7--5---------------------------------------------------------------------|
F|---------6--------------8---6---8---9----8---6--------------------------------------------|
C|---9-----7---4---5--5^^^^---7^^^^^^^^----9------9---7----9---7---7-----9--11-13--11--9^^^-|
G|----------------------------------------------------------------------10--10-12---9-------|
D|------------------------------------------------------------------------------------------|
   We'll stay for-ev-er this way.You are safe in my heart and my heart will go on and on.

D|------------|-----|-----|------------|-------------|-----|-----|------------|-----|--------|
A|------------|--7--|--7--|------------|-------------|--9--|--9--|------------|-----|--------|
F|---6--------|-----|-----|------------|----6-----6--|-----|-----|------------|--6--|--6--4--|
C|---7-----4--|--5--|--5--|---9-----9--|----7^^^^^^--|--5--|--5--|---9-----9--|--7--|--7^^^--|
G|------------|-----|-----|------------|-------------|-----|-----|------------|-----|--------|
D|------------|-----|-----|------------|-------------|-----|-----|------------|-----|--------|
  1/2+1/4 1/4    1     1   1/2+1/4 1/4   1/2+1/4 1/4    1     1   1/2+1/4 1/4    1   1/2......                                            1^^^^^^^^^^                                 1^^^^^^^^
D|--7--|--7---9--|--9--|--7--|--7---7----|-----|-------------|-----|-----------------|
A|--9--|--9------|-----|-----|----7---7--|-----|-------------|-----|-----------------|
F|-----|---------|-----|-----|-----------|-----|----6--------|-----|-----------------|
C|-----|---------|-----|-----|-----------|--9--|----------9--|--9--|-pause------9----|
G|-----|---------|-----|-----|-----------|-----|-------------|-----|-----------------|
D|-----|---------|-----|-----|-----------|-----|-------------|-----|-----------------|
    1    1/2 1/2    1     1    1/4......    1    1/2+1/4 1/4    1     1/4    1/2+1/4                       1^^^^^^

D|--------7----|----------|------------------------|--7--|
A|-----7----7--|----------|---------------------7--|-----|
F|-------------|----------|------------------------|-----|
C|--9----------|--9---11--|----9------4----9-------|-----|
G|-------------|----------|------------------------|-----|
D|-------------|----------|------------------------|-----|
   1/4.......    1/2....    1/4+1/8  1/8  1/4  1/4    1


The BASS tab of this song is at the "bass tabs" section of the site.
I hope you'll enjoy playing this song.By the way...please rate it!!!
            
Hard to play? Try these video lessons and learn fast. | Correct




comments powered by Disqus
↑ Back to top | Tablatures and chords are parodies/interpretations of the original songs. You may use it for private study, scholarship, research or language learning purposes only