» » »

Titanic Bass tabs (ver.1)

Artists:  A B C D E F G H I J K L M N O P Q R S T U V W X Y Z # 

Titanic Bass tabs (ver.1)

Theme Songs
Rating:
0/5 (0 votes)

Hard to play? Try these video lessons and learn fast.
                ~Titanic~ Standard Tuning

G-3-3-3-3-2-3-3-2-3-5-7-5-3-3-3-3-2-3-3--|-
D--------------------------------------2-|-
A----------------------------------------|-
E----------------------------------------|-

G-3-3-3-3-2-3-3-2-3-5-7-5-3-3-3-3-2-3-3--|-
D--------------------------------------2-|-
A----------------------------------------|-
E----------------------------------------|-

Meh
            
Hard to play? Try these video lessons and learn fast. | Correct




comments powered by Disqus
↑ Back to top | Tablatures and chords are parodies/interpretations of the original songs. You may use it for private study, scholarship, research or language learning purposes only