» » »

Theme Songs, The Tom Green Show Bass tabs (ver.1)

Artists:  A B C D E F G H I J K L M N O P Q R S T U V W X Y Z # 

The Tom Green Show Bass tabs (ver.1)

Theme Songs Tabs
 Rating:
4/5 (4 votes)
The Tom Green Show lessons Tabs too difficult? Try these video lessons and learn fast
1
                I Got Bored So I Decided To Tab It, and the Ohther Persons in here looked kind of Wrong so Heres a 5-star... Please Rate It



G--11-9-7-9-7-----11-7-9-7
D-------------9------------9
A---------------------------
E---------------------------

G--11-11-7-9-7----11-11-7-9-7-
D--------------9---------------9
A-------------------------------
E-------------------------------
            
Submit corrections

comments powered by Disqus
↑ Back to top | Theme Songs Bass for The Tom Green Show. Lyrics for acoustic guitar and electric guitar. 1 Tablatures and chords are parodies/interpretations of the original songs. You may use it for private study, scholarship, research or language learning purposes only