» » »

Theme Songs, The Legend Of Zelda - The Hyrule Song Bass tabs (ver.1)

Artists:  A B C D E F G H I J K L M N O P Q R S T U V W X Y Z # 

The Legend Of Zelda - The Hyrule Song Bass tabs (ver.1)

Theme Songs Tabs
 Rating:
4/5 (4 votes)
The Legend Of Zelda - The Hyrule Song lessons Tabs too difficult? Try these video lessons and learn fast
1
                ---------------------------------------------
--- The Legend of Zelda - The Hyrule Song ---
---------------------------------------------

It´s me again and I´ve tabbed another melody of a classical Video-Game !!!

--------------------
--- PART1 --- 1X ---
--------------------


G--|------------------|
D--|------------------|
A--|------------------|
E--|-111-111-111-1111-|




--------------------
--- PART2 --- 1X ---
--------------------


G--|------------------023---333--------------------------------------------|
D--|----------013---33---------646-43---3-1-34---3-1---13--------------5-3-|
A--|-1-----113---------------------------------------4------643-3357-------|
E--|---1-------------------------------------------------------------------|



------------------------------
--- Then play PART1 --- 1X ---
------------------------------



--------------------
--- PART3 --- 1X ---
--------------------

        
G--|------------------023---6-5----|-------3-2---|-----------------------------|
D--|----------013---33----------7--|-3-4-------3-|-------4-3---------0-2---3-5-|
A--|-1-----113---------------------|-------------|-5-6-------4---1-3-----------|
E--|---1---------------------------|-------------|-----------------------------|
                                    \___|2X|____/




..........and if you got nothing better to do, start again at PART1

Have PHUN !!!!


This tab is 100% correct.
If you cannot get the timing, just write me an e-mail.
I´ll send you the wav-file of this song !!!! (I´m a nice guy, right?)



Other tabs:
Super Mario Brothers - World 1-1
Super Mario Brothers - Secret Room
Super Mario Kart - Title
            
Submit corrections

comments powered by Disqus
↑ Back to top | Theme Songs Bass for The Legend Of Zelda - The Hyrule Song. Lyrics for acoustic guitar and electric guitar. 1 Tablatures and chords are parodies/interpretations of the original songs. You may use it for private study, scholarship, research or language learning purposes only