>
 >
The Killing Game Show

The Killing Game Show Bass Tabs

Theme Songs - The Killing Game Show chords, tabs, tablatures, lyrics

Guitar lessons | Add/correct | Request | Top 50 tabs Artists:  A B C D E F G H I J K L M N O P Q R S T U V W X Y Z 0-9

The Killing Game Show Bass Tabs – Theme Songs

CD, Sheet music, Poster

Do you like The Killing Game Show? Share with your friends now
Bass Tabs
Song - The In-Game Song
Composer of Original - Ray Norrish (Psygnosis)
Composer of This - Alec MacDonald

Although there isn't really a definite bass line in the song, I wrote this to go along with it.
It's nearly impossible to find this song on the internet, there's only about 4 people who


Note the tuning: lowest to highest: D, A, D, G

\ : Slide down
/ : Slide up
b: Bend
r: release bend
^: bend more
(3): Fret note but do not pluck it.
Rit: Gradually slow down
A tempo: Return to normal Speed

- -- --
10-12--   Whenever you see something like that, you play the 10th fret and 12th fret, not 1, 0 , 1 ,2.
- -- --
- -- --


Drums first, then some guitar, then start playing:

(0:14)
G|------------------------------------------------------------------|
D|----4-----4-----4-----4--------------4-----4-----4-----4-----\----|  x 2
A|------------------------------------------------------------------|
D|4-4---4-4---4-4---4-4------------4-4---4-4---4-4---4-4------------|

(0:27)
G|------------------------------------------------------------------|
D|----2-----2-----2-----2--------------4-----4-----4-----4-----\----|  x 2
A|--------------------------4-2-4-----------------------------------|
D|2-2---2-2---2-2---2-2------------4-4---4-4---4-4---4-4------------|

(0:40)
G|------------------------------------------------------------------|
D|------------------------------------------------------------------|  x 2
A|----------------------4-----\-------------------------------------|
D|6-6-9-6-6-9-6-6-9-6-6------------6-6-9-6-6-9-6-6-9-6-6-7-----\----|

(0:52)
G|-------------------------------------------------------------|
D|4-----4-----4-\---4-----4------------------------------------|
A|------------------------------5-/---5-7-7-7-5-7-7-7----------|
D|--4-4---4-4---------4-4---4-4-----------------------6////////|

(0:59)
G|--------------------------------------------------------------------------------|
D|4-4-------4-4-------4-4-------4-4-----------------------------------------------|  x 2
A|----------------------------------------4-4-------4-4-------4-4-------4-4-------|
D|----4---------4-4-4-----4---------4-4-4-----6---------6-6-6-----6---------6-6-6-|

(1:12)
G|--------------------------------------------------------------------------------|
D|--------------------------------------------------------------------------------|
A|5-5-------5-5-------5-5-------5-5-------7-7-------7-7-------7-7-------7-7-------|
D|----7---------7-7-7-----7---------7-7-7-----9---------9-9-9-----9---------9-9-9-|

(1:18)
G|--------------------------------------------------------------------------------|
D|--------------------------------------------------------------------------------|
A|5-5-------5-5-------5-5-------5-5-------7-7-------7-7-------5----4----5----7----|
D|----7---------7-7-7-----7---------7-7-7-----9---------9-9-9---------------------|

(1:24)
G|------------------------------------------------------------------|
D|------------------------------------------------------------------|  x 2
A|----------------------4-----\-------------------------------------|
D|6-6-9-6-6-9-6-6-9-6-6------------6-6-9-6-6-9-6-6-9-6-6-7-----\----|

(1:37)
G|-------------------------------------------------------------|
D|4-----4-----4-\---4-----4------------------------------------|
A|------------------------------5-/---5-7-7-7-5-7-7-7----------|
D|--4-4---4-4---------4-4---4-4-----------------------6////////|

(1:43)
G|----------------------------------6-6-------6-------6-6-------6-------|
D|4-4-----4--------4--4------4-7-4--------------------------------------|  x 2
A|--------------------------------------4-------4-4-4-----4-------4-4-4-|
D|----4-4--------4-------4-4--------------------------------------------|

(1:56)
G|-------------------------------------------------------------2-------|
D|0-0-----0--------0--0------4-7-4--2-2-----2----------------------2---|
A|---------------------------------------------------------------------|
D|----0-0--------0-------0-0------------2-2--------2-2-2---0-----------|

(2:02)
G|-----------------------------------------------------------------------------|
D|0-0-----0--------0--0------4-7-4--2-2-----2----------------------------------|
A|-----------------------------------------------------5---4---2---0---2-------|
D|----0-0--------0-------0-0------------2-2--------2-2-------------------------|

REST (2:11)

(2:13)
G|----------------------------------------------------|
D|----------------------------------------------------|
A|----------------------------------------------------|
D|4---4---2---4---12b^rb^rb^rb^r\\\\\\\\\\\(3)/////(7)|

(2:18)
G|----------------------------------------------------------------------|
D|----------------------------------------------------------------------|  x 2
A|--------2-----\-----------------------------2-5-4-2-0-----------------|
D|7-4-4-4------------7-4-4-4-5-----/----7-4-7-----------7---7-4---4-4-4-|

(2:30)
G|-----------------------------------------------------------------|
D|-----------------------------------------------------------------|
A|2---3-2-0-3----2---0-2---0-2-------------------------2---0---2---|
D|----------------------------------4---7-4-4------7---------------|

(2:37)
G|--------------------------------------------------------|
D|--------------------------------------------------------|
A|3-2-0-3---0-----2---------2-4-5-5-5-0-2-4-5------7------|
D|------------5-7-----------------------------------------|

(2:43)
G|----------------------------------------------------------------------|
D|4-4-4-4-4-4-4-4-4-4-4-4-4-4-------------2-2-2-2-4-4-4-4-6--6------2---|
A|----------------------------3-4-5-5-5-5----------------------4--4-----|
D|----------------------------------------------------------------------|

(2:50)
G|-----------------------------------------------------------------|
D|4-4-4-4-4-4-4-4-4-4-4-4-4-4-------------2-2-2-2-4-4-4-4-10---9---|
A|----------------------------3-4-5-5-5-5--------------------------|
D|-----------------------------------------------------------------|

(2:56)
G|10---7-9-10------14---14-12-10-12---------9-10-9-12------12---12-10-9-10---------|
D|- -------- ------- ---- -- -- -- ------------ ---- ------- ---- -- ---- ---------|
A|- -------- ------- ---- -- -- -- ------------ ---- ------- ---- -- ---- ---------|
D|- -------- ------- ---- -- -- -- ------------ ---- ------- ---- -- ---- ---------|

(3:02)
G|10---7-9-10-10-7-14---14-12-10-12---------9-10-9-12-14-12-10---9---5-7-----------|
D|- -------- -- ---- ---- -- -- -- ------------ ---- -- -- -- ---------------------|
A|- -------- -- ---- ---- -- -- -- ------------ ---- -- -- -- ---------------------|
D|- -------- -- ---- ---- -- -- -- ------------ ---- -- -- -- ---------------------|

(3:09)
G|10---7-9-10------14---14-12-10-12---------9-10-9-12------12---12-10-9-10---------|
D|- -------- ------- ---- -- -- -- ------------ ---- ------- ---- -- ---- ---------|
A|- -------- ------- ---- -- -- -- ------------ ---- ------- ---- -- ---- ---------|
D|- -------- ------- ---- -- -- -- ------------ ---- ------- ---- -- ---- ---------|

(3:15)
G|10---7-9-10-10-7-14---14-12-10-12---------9-10-9-12-14-12-10---9---5-7-----------|
D|- -------- -- ---- ---- -- -- -- ------------ ---- -- -- -- ---------------------|
A|- -------- -- ---- ---- -- -- -- ------------ ---- -- -- -- ---------------------|
D|- -------- -- ---- ---- -- -- -- ------------ ---- -- -- -- ---------------------|

(3:21)
G|--------------------------------------- ---- -- ---- -----------------------|
D|--------------------------------------- ---- -- ---- -----------------------|
A|0///5---5-5---5-5-7-8---8-8---8-\(5)//10---10-10---10-\\\5---5-5---5-\\\(0)-|
D|--------------------------------------- ---- -- ---- -----------------------|

(3:28)
G|----------------------------------- ---- -- ---- -----------------------|
D|----------------------------------- ---- -- ---- -----------------------|
A|5---5-5---5-5-7-8---8-8---8-\(5)//10---10-10---10-\\\5---5-5---5-\\\(0)-|
D|----------------------------------- ---- -- ---- -----------------------|

(3:34)
G|-----------------------------------------------------------------|
D|-----------------------------------------------------------------|
A|2-5-2-2---2-5-2-5---4---5------5-5-0-0------4-5-6-7-7-5---7---\\\|
D|-----------------------------------------------------------------|

(3:41)
G|-----------------------------------------------------------------|
D|----------------4---7---4---\\\----------------------------------| x 3
A|2-5-2-2---2-5-2----------------5-5-0-0------4-5-6-7-7-0---7---\\\|
D|-----------------------------------------------------------------|

(4:00)
G|----------------------------------------------------------------|
D|----------------4---7---4---\\\0----4----2----------------------|  x 2
A|2-5-2-2---2-5-2-------------------------------0-5-0-2---2----\\-|
D|----------------------------------------------------------------|
A Tempo       RIT>>>>>>>>>>>>>>>>>>>>>>>>>>>>>>>>>>>>>>>>>>>>>>>>>>>

(4:14)
G|--------|
D|--------|
A|--------|
D|9b^^^^^^|





Comments


Popular Theme Songs tabs & chords
Barney Miller Theme Bass Tabs
Bat Man Bass Tabs
Blue Heelers Theme Bass Tabs
Imperial March Bass Tabs
Jaws 1 Bass Tabs
Jingle Bells 2 Bass Tabs
Ode To Joy Bass Tabs
The Pink Panther 1 Bass Tabs
The Simpsons Theme Tune Bass Tabs
Zelda - Sarias Song Tabs


Song lyrics



↑ Back to top | Tablatures and chords are parodies/interpretations of the original songs. You may use it for private study, scholarship, research or language learning purposes only
© 2014 AZChords.com Contact us | Privacy policy | DMCA | Add/correct tabs | Request tabs | Top 50 tabs