>
 >
The Flinstones

The Flinstones Bass Tabs

Theme Songs - The Flinstones chords, tabs, tablatures, lyrics

Guitar lessons | Add/correct | Request | Top 50 tabs Artists:  A B C D E F G H I J K L M N O P Q R S T U V W X Y Z 0-9

The Flinstones Bass Tabs – Theme Songs

CD, Sheet music, Poster

Do you like The Flinstones? Share with your friends now
Bass Tabs
umm, yes the original tan was right, but it was all over the place

G------------------------------------------
D-------30--------------------------------
A3---------3----3-1-00-1-3--------0-------
E----2---------2-------------1-3-----------

G-------------------------------------------------------------------
D-------3-0-----------------------------------------------3-5-3-----
A3---------3------3-1-00-1-3--------0-1-3-------0-1-3--------------
E----2----------2---------------1-3--------1-3----------------------





Comments


Popular Theme Songs tabs & chords
70's Batman Theme Bass Tabs
Blue Heelers Theme Bass Tabs
Final Fantasy - Chocobo Theme Bass Tabs
Happy Birthday To Whoever Bass Tabs
I Love Lucy Theme Bass Tabs
The Man On The Flying Trapeze Bass Tabs
Beach Beat Tabs
Bey Blade Theme Tabs
Terminator 2 Tabs
Trigger Happy Tv Tabs


Song lyrics



↑ Back to top | Tablatures and chords are parodies/interpretations of the original songs. You may use it for private study, scholarship, research or language learning purposes only
© 2014 AZChords.com Contact us | Privacy policy | DMCA | Add/correct tabs | Request tabs | Top 50 tabs